Sublime

home > Sublime > chords

Santeria Tab

Sublime

Difficulty: ExpertExpert

by CDF da guitarra

tuner correct add songbook print version text version rtf version e-mail
chordsukulelecavacokeyboardtabbassdrummharmonicsflute Guitar Pro
chords

Santeria

	     
Artista: Sublime  
Música : Santeria   
Tom    : E    
 
Introdução: 
   E                    Ab           C#m                  B 
e|---------------------------------------------------------------------| 
b|-----5-------5------------4-----4--------------5-------------7-----7-| 
G|---4---4---4---4---4/---5---5---5--6-6---6-4-6---6---4/--8-----8-----| 
D|-2-------2-------2----6-------6--------6-----------6-6/--9-9-----9---| 
A|---------------------------------------------------------------------| 
E|---------------------------------------------------------------------| 
 
Versos: 4 batidas para baixo para cada acorde. 
 
   E    Ab   C#m   B 
e|-4-----4----4----7-| 
b|-5-----4----5----7-| 
G|-4-----5----6----8-| 
D|-------6-----------| 
A|-------------------| 
E|-------------------| 
 
Verso 1: 
             E                        Ab                 
I don't practice santeria I ain't got no crystal ball 
     C#m                            B 
I had a million dollars but I'd, I'd spend it all 
     E                                 Ab 
If I could find that Heina and that Sancho she's found 
            Dbm                      B  
Well I'd pop a cap in Sancho and I'd   slap her down 
 
 
Refrão: C#m sofre algumas modificações em cada frase. 
 
   A         B         E         C#m 
e|-5---------7---------4---------4--4----------| 
b|---5---5-----7---7-----5---5---5--5----------| 
G|-----6---------8---------4-----6--6----------| 
D|---------------------------------------------| 
A|---------------------------------------------| 
E|---------------------------------------------| 
 
A        B             E   C#m 
All I really wanna know my baby 
A        B            E   C#m      A 
All I really wanna say I can't define 
       B            E    C#m 
It's love that I need  
A          B 
But my soul will have to 
 
 
Verso 2:     
  
    E                           Ab 
Wait 'till I get back, find a Heina of my own 
   C#m                      B 
Daddy's gonna love one and all 
E                                 Ab 
I feel the break, feel the break, feel the break 
                  C#m                   B  
And I gotta live it up Oh yeah, uh huh, well I swear that I 
 
 
Refrão: C#m sofre algumas modificações em cada frase. 
 
   A         B         E         C#m 
e|-5---------7---------4---------4--4----------| 
b|---5---5-----7---7-----5---5---5--5----------| 
G|-----6---------8---------4-----6--6----------| 
D|---------------------------------------------| 
A|---------------------------------------------| 
E|---------------------------------------------| 
 
A        B           E    C#m 
All I really wanna know my baby 
A        B            E   C#m      A 
All I really wanna say I can't define 
      B            E    C#m 
That love will make it go 
A         B 
My soul will have to 
 
Solo: 
 
e|-4--------------------------------------------------------| 
b|-5-------5^-7^-7-5-4-4-4-2-4/5/4--------------------------| 
G|-4-----4-------------------------6-6/4--------------------| 
D|-6--/6---------------------------------6-5-4^~~--6-4------| 
A|-7---------------------------------------------------6-4--| 
E|----------------------------------------------------------| 
 
e|----------------------------------------------------------| 
b|-------------------------5--12^-12-11-9-7/8/7-5-----------| 
G|-------------------4/6-6------------------------8/7-5-3/9-| 
D|-------------4/6-6----------------------------------------| 
A|-------4/6-6----------------------------------------------| 
E|-4/6-6----------------------------------------------------| 
 
e|---------------9--------9---------7---------| 
b|------------8^---9---8^---9---8^----8-7/5-7-| 
G|-----5---5--8^-----9-8^-----9-8^------------| 
D|-4/6---6------------------------------------| 
A|--------------------------------------------| 
E|--------------------------------------------| 
 
 
Refrão: C#m sofre algumas modificações em cada frase. 
 
   A         B         E         C#m 
e|-5---------7---------4---------4--4----------| 
b|---5---5-----7---7-----5---5---5--5----------| 
G|-----6---------8---------4-----6--6----------| 
D|---------------------------------------------| 
A|---------------------------------------------| 
E|---------------------------------------------| 
ç 
 
A        B           E    C#m 
All I really wanna say my baby 
A        B            E   C#m      A 
All I really wanna say is I've got mine 
     B            E     C#m 
And I'll make it yes I'm comin' up 
A         B 
Tell Sanchito that if 
 
 
Verso 3: 
 
E                         Ab 
He knows what is good for him he best go run and hide 
 C#m              B 
Daddy's got a new 45 
E                                         Ab 
And I won't think twice to stick that barrel straight down Sancho's throat 
         Dbm                           B  
Believe me when I say that I've got something for his punk ass 
 
 
Refrão: C#m sofre algumas modificações em cada frase. 
 
   A         B         E         C#m 
e|-5---------7---------4---------4--4----------| 
b|---5---5-----7---7-----5---5---5--5----------| 
G|-----6---------8---------4-----6--6----------| 
D|---------------------------------------------| 
A|---------------------------------------------| 
E|---------------------------------------------| 
 
A        B           E    C#m 
Well I really wanna know my baby 
A        B            E   C#m       A 
What I really wanna say is there's just one way back 
  B           E     Dbm 
And I'll make it 
A           B 
yeah my soul will have to wait 
 
Fim. 
 

	  

Request the video "Santeria"  -  Send "Santeria" Ringtone to your Cell

there isn't a video lesson for this song

request
Full key step upFull key step up
Half key step upHalf key step up
Half key step downHalf key step down
Full key step downFull key step down
Search
auto scroll beats size up size down change color hide chords drawings
tab show chords e-chords YouTube Clip e-chords hide all tabs e-chords go to top tab