Stratovarius

home > Stratovari... > chords

No Turning Back Tab

Stratovarius

Difficulty: BeginnerBeginner

by Alex-guitar

tuner correct add songbook print version text version rtf version e-mail
chordsukulelecavacokeyboardtabbassdrumsharmonicsflute Guitar Pro
chords

No Turning Back

	  Intro: 
e:--------------------------------------------------------------------------------------------- 
B:--------------------------------------------------------------------------------------------- 
G:--------------------------------------------------------------------------------------------- x4 
D:-12-0-0-0-0-12-0-0-0-0-7-0-0-8-0-0-0-0-8-0-0-0-0-5-0-0-7-0-0-0-0-7-0-0-0-0-7-0-0-7-8-7-5----- 
A:-----------------------------------------------------------------------------------------8-7- 
E:--------------------------------------------------------------------------------------------- 
 
e:------ 
B:------ 
G:--3--- 
D:--1--- 
A:--1--- 
E:------ 
 
So long I have been.. 
e:---------------------------------------------------------------------------------- 
B:---------------------------------------------------------------------------------- 
G:--7---7---------7---------7-----7---------7---------7------------------7--3---5--- x2 
D:--7---7---------7---------7-----7---------7---------7-----------2------7--3-3-5-5- 
A:--5---5-5-5-5-5-5-5-5-5-5-5-5-5-5-5-5-5-5-5-5-5-5-5-5-5-5--3--5----5-3-5--1-3-3-5- 
E:----------------------------------------------------------------------------1---3- 
 
There's no one else to turn the weel.. 
e:------------------------------------------- 
B:------------------------------------------- 
G:-3--------------------3-------------------- 
D:-3--------------------3-------------------- 
A:-1---5-5-5-5-5-5-5...-1---3-3-3-3-3-3-3...- 
E:------------------------------------------- 
 
No Turning Back.. 
e:----------------------------------------------------------------------- 
B:----------------------------------------------------------------------- 
G:-----5---------5---------5-----5---------5---------5------3--7--5------ 
D:-3---5---------5---------5-----5---------5---------5------3--7--5----2- 
A:-3---3-3-3-3-3-3-3-3-3-3-3-3-3-3-3-3-3-3-3-3-3-3-3-3-3-3--1--5--3--5--- 
E:-1--------------------------------------------------------------------- 
 
e:---------------------------------------------------------------- 
B:---------------------------------------------------------------- 
G:-----5---------5---------5-----5---------5---------5------3---2- 
D:-3---5---------5---------5-----5---------5---------5------3---2- 
A:-3---3-3-3-3-3-3-3-3-3-3-3-3-3-3-3-3-3-3-3-3-3-3-3-3-3----1---0- 
E:-1-------------------------------------------------------------- 
 
e:--------------------------------------------------------------------------------------------- 
B:--------------------------------------------------------------------------------------------- 
G:--------------------------------------------------------------------------------------------- x2 
D:-12-0-0-0-0-12-0-0-0-0-7-0-0-8-0-0-0-0-8-0-0-0-0-5-0-0-7-0-0-0-0-7-0-0-0-0-7-0-0-7-8-7-5----- 
A:-----------------------------------------------------------------------------------------8-7- 
E:--------------------------------------------------------------------------------------------- 
 
e:------ 
B:------ 
G:--3--- 
D:--1--- 
A:--1--- 
E:------ 
 
Hard to find the right words.. 
e:---------------------------------------------------------------------------------- 
B:---------------------------------------------------------------------------------- 
G:--7---7---------7---------7-----7---------7---------7------------------7--3---5--- x2 
D:--7---7---------7---------7-----7---------7---------7-----------2------7--3-3-5-5- 
A:--5---5-5-5-5-5-5-5-5-5-5-5-5-5-5-5-5-5-5-5-5-5-5-5-5-5-5--3--5----5-3-5--1-3-3-5- 
E:----------------------------------------------------------------------------1---3- 
 
There's no one else to turn the weel.. 
e:------------------------------------------- 
B:------------------------------------------- 
G:-3--------------------3-------------------- 
D:-3--------------------3-------------------- 
A:-1---5-5-5-5-5-5-5...-1---3-3-3-3-3-3-3...- 
E:------------------------------------------- 
 
No Turning Back.. 
e:----------------------------------------------------------------------- 
B:----------------------------------------------------------------------- 
G:-----5---------5---------5-----5---------5---------5------3--7--5------ 
D:-3---5---------5---------5-----5---------5---------5------3--7--5----2- 
A:-3---3-3-3-3-3-3-3-3-3-3-3-3-3-3-3-3-3-3-3-3-3-3-3-3-3-3--1--5--3--5--- 
E:-1--------------------------------------------------------------------- 
 
e:---------------------------------------------------------------- 
B:---------------------------------------------------------------- 
G:-----5---------5---------5-----5---------5---------5------3---2- 
D:-3---5---------5---------5-----5---------5---------5------3---2- 
A:-3---3-3-3-3-3-3-3-3-3-3-3-3-3-3-3-3-3-3-3-3-3-3-3-3-3----1---0- 
E:-1-------------------------------------------------------------- 
 
e:--------------------------------------------------------------------------------------------- 
B:--------------------------------------------------------------------------------------------- 
G:--------------------------------------------------------------------------------------------- x2 
D:-12-0-0-0-0-12-0-0-0-0-7-0-0-8-0-0-0-0-8-0-0-0-0-5-0-0-7-0-0-0-0-7-0-0-0-0-7-0-0-7-8-7-5----- 
A:-----------------------------------------------------------------------------------------8-7- 
E:--------------------------------------------------------------------------------------------- 
 
I have all the strings in my hand.. 
e:------------------------                  e:--- 
B:------------------------                  B:--- 
G:------------3-3-2-0--7-- x4               G:-2- 
D:---0-0-3-3-----------7--    ends with an  D:-2-  the last time.. 
A:-1-------------------5--                  A:-0- 
E:------------------------                  E:--- 
 
solo with keyboard 
e:-12-15-13-12-15-13-12-15-13-12-15-13-12-15-13-12-11-14-12-11-14-12-11-14-12-11-14-12-11-14-12-11- 
B:------------------------------------------------------------------------------------------------- 
G:------------------------------------------------------------------------------------------------- 
D:---bass------------------------------------------------------------------------------------------ 
A:-0-0-0-0-0-0-0-0-0-0-0-0-0-0-0-0-----------------2-2-2-2-2-2-2-2-2-2-2-2-2-2-2-2----------------- 
E:------------------------------------------------------------------------------------------------- 
 
e:-12-15-13-12-15-13-12-15-13-12-15-13-12-15-13-12-19191919-17171717-15151515-14141414------------- 
B:------------------------------------------------------------------------------------------------- 
G:------------------------------------------------------------------------------------------------- x2 
D:------------------------------------------------------------------------------------------------- 
A:-0-0-0-0-0-0-0-0-0-0-0-0-0-0-0-0-----------------2-2-0-0----------------------------------------- 
E:---------------------------------------------------------3-3-2-2--------------------------------- 
 
e:-12-15-13-12-15-13-12-15-13-12-15-13-12-15-13-12-11-14-12-11-14-12-11-14-12-11-14-12-11-14-12-11-- 
B:-------------------------------------------------------------------------------------------------- 
G:-------------------------------------------------------------------------------------------------- 
D:-9-----------------------------------------------8------------------------------------------------ 
A:-7-----------------------------------------------6------------------------------------------------ 
E:-------------------------------------------------------------------------------------------------- 
 
e:-10-14-12-10-14-12-10-14-12-10-14-12-10-14-12-10-9-12-10-9-12-10-9-12-10-9-12-10-9-12-10-9-- 
B:-------------------------------------------------------------------------------------------- 
G:-------------------------------------------------------------------------------------------- 
D:-7-----------------------------------------------6------------------------------------------ 
A:-5-----------------------------------------------4------------------------------------------ 
E:-------------------------------------------------------------------------------------------- 
 
e:-8-12-10-8-12-10-8-12-10-8-12-10-8-12-10-8-7-10-8-7-10-8-7-10-8-7-10-8-7-10-8-7-- 
B:--------------------------------------------------------------------------------- 
G:--------------------------------------------------------------------------------- 
D:-5-----------------------------------------4------------------------------------- 
A:-3-----------------------------------------2------------------------------------- 
E:--------------------------------------------------------------------------------- 
 
e:-6-10-8-6-10-8-6-10-8-6-10-8-6-10-8-6-5-8-6-5-8-6-5-8-6-5-8-6-5-8-6-5--12-10-8-12-10-8-12-10-8-12-10-8sl/15- 
B:------------------------------------------------------------------------------------------------------------ 
G:------------------------------------------------------------------------------------------------------------ 
D:-3------------------------------------2--------------------------------5---------------------------------5-- 
A:-1------------------------------------0--------------------------------3---------------------------------3-- 
E:------------------------------------------------------------------------------------------------------------ 
 
No Turning Back.. 
e:----------------------------------------------------------------------- 
B:----------------------------------------------------------------------- 
G:-----5---------5---------5-----5---------5---------5------3--7--5------ 
D:-3---5---------5---------5-----5---------5---------5------3--7--5----2- 
A:-3---3-3-3-3-3-3-3-3-3-3-3-3-3-3-3-3-3-3-3-3-3-3-3-3-3-3--1--5--3--5--- 
E:-1--------------------------------------------------------------------- 
 
e:---------------------------------------------------------------- 
B:---------------------------------------------------------------- 
G:-----5---------5---------5-----5---------5---------5------3---2- 
D:-3---5---------5---------5-----5---------5---------5------3---2- 
A:-3---3-3-3-3-3-3-3-3-3-3-3-3-3-3-3-3-3-3-3-3-3-3-3-3-3----1---0- 
E:-1-------------------------------------------------------------- 
 
e:--------------------------------------------------------------------------------------------- 
B:--------------------------------------------------------------------------------------------- 
G:--------------------------------------------------------------------------------------------- x4 
D:-12-0-0-0-0-12-0-0-0-0-7-0-0-8-0-0-0-0-8-0-0-0-0-5-0-0-7-0-0-0-0-7-0-0-0-0-7-0-0-7-8-7-5----- 
A:-----------------------------------------------------------------------------------------8-7- 
E:--------------------------------------------------------------------------------------------- 
 
e:--------------- 
B:--------------- 
G:-3-----7-7\sl-- 
D:-3-----7-7\sl-- 
A:-1-----5-5\sl-- 
E:--------------- 
 

	  

Request the video "No Turning Back"  -  Send "No Turning Back" Ringtone to your Cell

there isn't a video lesson for this song

request
Search
auto scroll beats size up size down change color hide chords drawings
tab show chords e-chords YouTube Clip e-chords hide all tabs e-chords go to top tab