Steppenwolf

home > Steppenwol... > chords

Born To Be Wild (ver. 2) Tab

Steppenwolf

Difficulty: BeginnerBeginner

by [GUI]-tarrista

tuner correct add songbook print version text version rtf version e-mail
chordsukulelecavacokeyboardtabbassdrumsharmonicsflute Guitar Pro
chords

Born To Be Wild (ver. 2)

	  BORN TO BE WILD 
Steppenwolf - Transcrita por {GUI}-tarrista 
 
Intro/Versos: 
 
    E         C#     B   D 
e------------------------------| 
B------------------------------| 
G--13--------------------11----| 
D--14---------11-----9---12----| 
A--14---------11-----9---12----| 
E--12---------9--SLD-7---10----| 
 
Ponte 1: 
 
   G   A          E 
e---------------------------| 
B---------------------------| 
G--4---6----------9---------| 
D--5---7----------9---------| 
A--5---7----------7---------| 
E--3---5--------------------| 
 Yeah Darlin' go make it happen 
etc... 
 
Ponte 2: 
 
E 
Like a true nature's child 
         G 
We were born, born to be wild 
         A           G 
We can climb so high 
               E 
I never wanna die 
 
Refrão: 
 
 (E          D   D7+ D)    (Bis) 
 Born to be wild 
 (E          D   D7+ D)    (Bis) 
 Born to be wild 
   E   D   D7+ 
e----------------------------| 
B----------------------------| 
G--9---7---6-----------------| 
D--9---7---7-----------------| 
A--7---5---5-----------------| 
E--7---5---5-----------------| 
 
Solos & grooves : 
 
  Em 
e--7--| 
e--8--| 
e--9--| 
e--9--| 
e--7--| 
e--7--| 
 
O solo sobre esse acorde é só uma pentatônica de Em 

	  

Request the video "Born To Be Wild (ver. 2)"  -  Send "Born To Be Wild (ver. 2)" Ringtone to your Cell

there isn't a video lesson for this song

request
Full key step upFull key step up
Half key step upHalf key step up
Half key step downHalf key step down
Full key step downFull key step down
Search
auto scroll beats size up size down change color hide chords drawings
tab show chords e-chords YouTube Clip e-chords hide all tabs e-chords go to top tab