Slash

home > Slash > chords

Anastasia (intro) Tab

Slash

Difficulty: ExpertExpert

by ang-letra

tuner correct add songbook print version text version rtf version e-mail
chordsukulelecavacokeyboardtabbassdrumsharmonicsflute Guitar Pro
chords

Anastasia (intro)

	  

E----12----12----12----12|----12----12----12----12|----12----12----12----12| 
B-------16----14----16---|-------16----14----16---|-------16----14----16---| 
G-13---------------------|-13---------------------|-14---------------------| 
D------------------------|------------------------|------------------------| 
A------------------------|------------------------|------------------------| 
E------------------------|------------------------|------------------------| 

E----12----12----12----12|----14----14----14----14|----14----14----14----14| 
B-------16----14----16---|-------17----16----17---|-------17----16----17---| 
G-14---------------------|-15---------------------|-15---------------------| 
D------------------------|------------------------|------------------------| 
A------------------------|------------------------|------------------------| 
E------------------------|------------------------|------------------------| 

E----14----14----14----14|----14----14----14----14|----16----16----16----16| 
B-------17----16----17---|-------17----16----17---|-------19----------19---| 
G-16---------------------|-16---------------------|-17----------20---------| 
D------------------------|------------------------|------------------------| 
A------------------------|------------------------|------------------------| 
E------------------------|------------------------|------------------------| 

E----16----16----16----16|----16----16----16----16|----16----16----16----16| 
B-------19----------19---|-------17----------17---|-------17----------17---| 
G-17----------20---------|-17----------20---------|-17----------20---------| 
D------------------------|------------------------|------------------------| 
A------------------------|------------------------|------------------------| 
E------------------------|------------------------|------------------------| 

E----17-16-17----16-14-16|----14-13-14----14-13-14|----12-11-12----12-11-12| 
B-14----------13---------|-12-----------11--------|-10------------9--------| 
G------------------------|------------------------|------------------------| 
D------------------------|------------------------|------------------------| 
A------------------------|------------------------|------------------------| 
E------------------------|------------------------|------------------------| 

E----11-10-11----11-10-11|------------------------|------------------------| 
B-8----------------------|-9-12-11-12----8-11-9-11|--7-11-9-11-----9-8-9---| 
G--------------8---------|------------------------|-------------6----------| 
D------------------------|------------------------|------------------------| 
A------------------------|------------------------|------------------------| 
E------------------------|------------------------|------------------------| 

E------------------------|------------------------| 
B--5-9-8-9-----7-6-7-----|--6b7r------------------| 
G------------4-----------|---------8-8------------| 
D------------------------|------------------------| 
A------------------------|------------------------| 
E------------------------|------------------------| 
	  

Request the video "Anastasia (intro)"  -  Send "Anastasia (intro)" Ringtone to your Cell

there isn't a video lesson for this song

request
Search
auto scroll beats size up size down change color hide chords drawings
tab show chords e-chords YouTube Clip e-chords hide all tabs e-chords go to top tab