Simon & Garfunkel

home > Simon & Ga... > chords

Bookend's Theme Tab

Simon & Garfunkel

Difficulty: nolevelnolevel

by ahpsm

tuner correct add songbook print version text version rtf version e-mail
chordsukulelecavacokeyboardtabbassdrumsharmonicsflute Guitar Pro
chords

Bookend's Theme

	   Bookends Theme 
                      Simon And Garfunkel 

Capo seventh fret 



 3/8 
|-------0-----1-----|-------0-----1-----|-------0-----1-----| 
|-3-----------------|-3-----------------|-3-----------------| 
|-------0-----2-----|-------0-----2-----|-------0-----2-----| 
|-3-----------------|-3-----------------|-3-----------------| 
|-------------------|-------------------|-------------------| 
|-------------------|-------------------|-------------------| 


|-------0-----1-----|-0-----------------|-------------------| 
|-3-----------------|-------1-----------|-------------------| 
|-------0-----2-----|-0-----------0-----|-(0)---------------| 
|-3-----------------|-------2-----------|-------------------| 
|-------------------|-------------3-----|-(3)---------------| 
|-------------------|-------------------|-------------------| 

                    4/4 
|-------0-----------|-------------------------| 
|-1-----------1-----|-3--1--------1-----3--1--| 
|-------0-----------|-------2-----------------| 
|-2-----------2-----|-3--3-----3-----3--------| 
|-------------------|-------3-----------------| 
|-------------------|-------------------------| 


|-0--------------------0---| 
|----1-----1--------1------| 
|-0-----0--------0-----0---| 
|----2-----2--------2------| 
|-------3--------3---------| 
|--------------------------| 

 3/8 
|-------0-----1-----|-------0-----1-----|-------0-----1-----| 
|-3-----------------|-3-----------------|-3-----------------| 
|-------0-----2-----|-------0-----2-----|-------0-----2-----| 
|-3-----------------|-3-----------------|-3-----------------| 
|-------------------|-------------------|-------------------| 
|-------------------|-------------------|-------------------| 


|-------0-----1-----|-0-----------------|-------------------| 
|-3-----------------|-------1-----------|-------------------| 
|-------0-----2-----|-0-----------0-----|-(0)---------------| 
|-3-----------------|-------2-----------|-------------------| 
|-------------------|-------------3-----|-(3)---------------| 
|-------------------|-------------------|-------------------| 


|-------0-----------|-0----| 
|-1-----------1-----|----1-| 
|-------0-----------|-0----| 
|-2-----------2-----|----2-| 
|-------------------|------| 
|-------------------|------| 
	  

Request the video "Bookend's Theme"  -  Send "Bookend's Theme" Ringtone to your Cell

there isn't a video lesson for this song

request
e-chords
Search
auto scroll beats size up size down change color hide chords drawings
tab show chords e-chords YouTube Clip e-chords hide all tabs e-chords go to top tab