Sétima Legião

home > Sétima Leg... > chords

Por quem não esqueci Tab

Sétima Legião

Difficulty: ExpertExpert

by JoaogloriA

tuner correct add songbook print version text version rtf version e-mail
chordsukulelecavacokeyboardtabbassdrumsharmonicsflute Guitar Pro
chords

Por quem não esqueci

	  Intro 
      C              A7           Am             A7   
e---------------------------------------------------- 
B--------1--3---------3--0---------1--3---------3--0- 
G------0------------0------------2------------0------ 
D----2------------0------------2------------0-------- 
A--3------------2------------0------------2---------- 
E---------------------------------------------------- 

      C              A7          Am             G 
e---------------------------------------------------- 
B--------1--3---------3--0---------1--3---------3---- 
G------0------------0------------2------------0----0- 
D----2------------0------------2--------------------- 
A--3------------2------------0--------------2-------- 
E-----------------------------------------3---------- 


___acaba o intro e começa a 1º parte cantada___ 
     C           A7          Am          A7 
e----------------------------------------------- 
B--------1-----------3-----------1-----------3-- 
G------0-----------0-----------2-----------0---- 
D----2-----------0-----------2-----------0------ 
A--3-----------2-----------0-----------2-------- 
E----------------------------------------------- 
   Há uma voz de sempre    Que chama por mim 


      C           A7          Am          G 
e----------------------------------------------- 
B--------1-----------3-----------1-----------3-- 
G------0-----------0-----------2-----------0---- 
D----2-----------0-----------2------------------ 
A--3-----------2-----------0-------------2------ 
E--------------------------------------3-------- 
   Para que eu lembre      Que a noite tem fim 

     C           A7          Am          A7 
e----------------------------------------------- 
B--------1-----------3-----------1-----------3-- 
G------0-----------0-----------2-----------0---- 
D----2-----------0-----------2-----------0------ 
A--3-----------2-----------0-----------2-------- 
E----------------------------------------------- 
   Ainda procuro           Por quem não esqueci 


      C           A7          Am           
e-------------------------------------- 
B--------1-----------3-----------1----- 
G------0-----------0-----------2------- (O La menor  
D----2-----------0-----------2--------- repete-se 3X) 
A--3-----------2-----------0----------- 
E-------------------------------------- 
   Em nome de um sonho     Em nome de ti 


___Refrão___ 
     G           A7            C 
e---------------------------------- 
B--------3-----------3-----------1- 
G------0-----------0-----------0--- 
D----------------0-----------2----- 
A----2---------2-----------3------- 
E--3------------------------------- 
               Procuro à noite 


      D          G 
e---------------------- 
B--------3-----------3- 
G------2-----------0--- 
D----0----------------- 
A--0-------------2----- 
E--------------3------- 
   Um sinal de ti 


     A7          C  
e----------------------- 
B--------3-----------1-- 
G------0-----------0---- 
D----0-----------2------ 
A--2-----------3-------- 
E----------------------- 
   Espero à noite 


     D           Em 
e---------------------- 
B--------3-----------0- 
G------2-----------0--- 
D----0-----------2----- 
A--0-----------2------- 
E---------------------- 
   Por quem não esqueci 


     A7          C  
e----------------------- 
B--------3-----------1-- 
G------0-----------0---- 
D----0-----------2------ 
A--2-----------3-------- 
E----------------------- 
   Eu peço à noite 


     D           C 
e---------------------- 
B--------3-----------1- 
G------2-----------0--- 
D----0-----------2----- 
A--0-----------3------- 
E---------------------- 
   Um sinal de ti 


     D          G 
e---------------------- 
B--------3-----------3- 
G------2-----------0--- 
D----0----------------- 
A--0-------------2----- 
E--------------3------- 
   Por quem eu não esqueci 


___Acaba o Refrão e começa a 2º parte cantada___ 
           C                  A7          
e----------0-------------------0------- 
B--------1---1---------------3---3----- 
G------0-------0-----------0-------0--- 
D----2-----------2--------0----------0- 
A--3-------------------2--------------- 
E-------------------------------------- 
   Por sinais perdidos 


          Am                  A7 
e----------0-------------------0------- 
B--------1---1---------------3---3----- 
G------2-------2-----------0-------0--- 
D----2-----------2-------0-----------0- 
A--0-------------------2--------------- 
E-------------------------------------- 
           Espero em vão 


           C                  A7          
e----------0-------------------0------- 
B--------1---1---------------3---3----- 
G------0-------0-----------0-------0--- 
D----2-----------2--------0----------0- 
A--3-------------------2--------------- 
E-------------------------------------- 
           Por tempos antigos 


        Am                   G 
e----------0---------------------0------- 
B--------1---1-----------------3---3----- 
G------2-------2-------------0-------0--- 
D----2-----------2---------------------0-- 
A--0---------------0-------2------------- 
E------------------------3--------------- 
           Por uma canção 


           C                  A7          
e----------0-------------------0------- 
B--------1---1---------------3---3----- 
G------0-------0-----------0-------0--- 
D----2-----------2--------0----------0- 
A--3-------------------2--------------- 
E-------------------------------------- 
           Ainda procuro 


           Am                  A7 
e----------0-------------------0------- 
B--------1---1---------------3---3----- 
G------2-------2-----------0-------0--- 
D----2-----------2-------0-----------0- 
A--0-------------------2--------------- 
E-------------------------------------- 
           Por quem não esqueci 


           C                  A7          
e----------0-------------------0------- 
B--------1---1---------------3---3----- 
G------0-------0-----------0-------0--- 
D----2-----------2--------0----------0- 
A--3-------------------2--------------- 
E-------------------------------------- 
           Por quem já não volta 


     Am           
e-------------- 
B--------1----- 
G------2------- (O La menor  
D----2--------- repete-se 3X) 
A--0----------- 
E-------------- 
   Por quem eu perdi 


___Refrão___2X 
     G           A7            C 
e---------------------------------- 
B--------3-----------3-----------1- 
G------0-----------0-----------0--- 
D----------------0-----------2----- 
A----2---------2-----------3------- 
E--3------------------------------- 
               Procuro à noite 


      D          G 
e---------------------- 
B--------3-----------3- 
G------2-----------0--- 
D----0----------------- 
A--0-------------2----- 
E--------------3------- 
   Um sinal de ti 


     A7          C  
e----------------------- 
B--------3-----------1-- 
G------0-----------0---- 
D----0-----------2------ 
A--2-----------3-------- 
E----------------------- 
   Espero à noite 


     D           Em 
e---------------------- 
B--------3-----------0- 
G------2-----------0--- 
D----0-----------2----- 
A--0-----------2------- 
E---------------------- 
   Por quem não esqueci 


     A7          C  
e----------------------- 
B--------3-----------1-- 
G------0-----------0---- 
D----0-----------2------ 
A--2-----------3-------- 
E----------------------- 
   Eu peço à noite 


     D           C 
e---------------------- 
B--------3-----------1- 
G------2-----------0--- 
D----0-----------2----- 
A--0-----------3------- 
E---------------------- 
   Um sinal de ti 


     D          G 
e---------------------- 
B--------3-----------3- 
G------2-----------0--- 
D----0----------------- 
A--0-------------2----- 
E--------------3------- 
   Por quem eu não esqueci 

	  

Request the video "Por quem não esqueci"  -  Send "Por quem não esqueci" Ringtone to your Cell

there isn't a video lesson for this song

request
Full key step upFull key step up
Half key step upHalf key step up
Half key step downHalf key step down
Full key step downFull key step down
Search
auto scroll beats size up size down change color hide chords drawings
tab show chords e-chords YouTube Clip e-chords hide all tabs e-chords go to top tab