Seether

home > Seether > chords

Country Song Tab

Seether

Difficulty: IntermediateIntermediate

by fernsantana

tuner correct add songbook print version text version rtf version e-mail
chordsukulelecavacokeyboardtabbassdrumsharmonicsflute Guitar Pro
chords

Country Song

(Seether)

	   

Verse: 

Guitar 1 X4 
e|--------------------------------------| 
B|--------------------------------------| 
G|-9b-7-5-7-10-7----9b-7-5--------------| 
D|-------------------------7-5-3--------| 
A|--------------------------------------| 
D|--------------------------------------| 


e|--------------------------------------| 
B|--------------------------------------| 
G|-9b-7-5-7-10-7------------------------| 
D|----------------7/10-7-7/12-7-7-5-3-0-| 
A|--------------------------------------| 
D|--------------------------------------| 


Guitar 2 
e|--------------------------------------| 
B|--------------------------------------| 
G|--------------------------------------| 
D|--3--3--3--3--3--3--3--3--3--3--3--3--| 
A|--3--3--3--3--3--3--3--3--3--3--3--3--| 
D|--3--3--3--3--3--3--3--3--3--3--3--3--| 

e|----------------------| 
B|----------------------| 
G|----------------------| 
D|-5-5-3-5--3-----------| 
A|-5-5-3-5--3-----------| 
D|-5-5-3-5--3-----------| 

Verse 2: 
Guitar 2 
e|---------------------------------------| 
B|---------------------------------------| 
G|---------------------------------------| 
D|--3--3--3--3--5--5--5--5--3--3--3--3---| 
A|--3--3--3--3--5--5--5--5--3--3--3--3---| 
D|--3--3--3--3--5--5--5--5--3--3--3--3---| 

e|--------------------------| 
B|--------------------------| 
G|--------------------------| 
D|-5-5-3-5----5h6p5p3p0-----| 
A|-5-5-3-5------------------| 
D|-5-5-3-5------------------| 

Chorus: 
Guitar 1+2 
e|------------------------------------------| 
B|------------------------------------------| 
G|------------------------------------------| 
D|-0--0--0-3-3-3-3--3--5h6p5p0-5-5--5--3-3--| 
A|-0--0--0-3-3-3-3--3--5h6p5p0-5-5--5--3-3--| 
D|-0--0--0-3-3-3-3--3--5h6p5p0-5-5--5--3-3--| 

e|------------------------------------------------| 
B|------------------------------------------------| 
G|------------------------------------------------| 
D|-0--0--0-3-3-3-3--3--5h6p5p0-5-5--3--5h6p5p3p0--| 
A|-0--0--0-3-3-3-3--3--5h6p5p0-5-5--3-------------| 
D|-0--0--0-3-3-3-3--3--5h6p5p0-5-5--3-------------| 
                                    .  

e|-------------------------------------| 
B|-------------------------------------| 
G|-------------------------------------| 
D|-0--0--0-3-3-3-3--3-5-5-5h6p5p0-3-3--| 
A|-0--0--0-3-3-3-3--3-5-5-5h6p5p0-3-3--| 
D|-0--0--0-3-3-3-3--3-5-5-5h6p5p0-3-3--| 

e|------------------------------------------------| 
B|------------------------------------------------| 
G|------------------------------------------------| 
D|-0--0--0-3-3-3-3--3--5h6p5p0-5-5--3--5h6p5p3p0--| 
A|-0--0--0-3-3-3-3--3--5h6p5p0-5-5--3-------------| 
D|-0--0--0-3-3-3-3--3--5h6p5p0-5-5--3-------------| 
                                    . 
Solo: 
Guitar 2 
e|---------------------------------------------------| 
B|---------------------------------------------------| 
G|---------------------------------------------------| 
D|------3-5p3h5p3p0------3-5h6p5p3p0-----3-5p3h5p3p0-| 
A|--5-5--------------5-5-------------5-5-------------| 
D|---------------------------------------------------| 

e|-----------------------| 
B|-----------------------| 
G|-----------------------| 
D|-5-5-3-5---------------| 
A|-5-5-3-5---------------| 
D|-5-5-3-5---------------| 

Bridge: X4 
e|-----------------------| 
B|-3-3-8-9---------------| 
G|-2-2-7-8---------------| 
D|-----------------------| 
A|-----------------------| 
D|-----------------------| 
 
	  

Request the video "Country Song"  -  Send "Country Song" Ringtone to your Cell

there isn't a video lesson for this song

request
Search
auto scroll beats size up size down change color hide chords drawings
tab show chords e-chords YouTube Clip e-chords hide all tabs e-chords go to top tab