Secondhand Serenade

home > Secondhand... > chords

Your Call Tab

Secondhand Serenade

Difficulty: BeginnerBeginner

by cheaboi21

tuner correct add songbook print version text version rtf version e-mail
chordsukulelecavacokeyboardtabbassdrumsharmonicsflute Guitar Pro
chords

Your Call

	  Riff 1 
|-------------------------------| 
|-------------------------------| 
|----0-------0-------0-------0--| 
|--0---0---4---4---5---5---5---0| repeat 8x 
|3-------5-------7-------7------| 
|-------------------------------| 

Riff 2 
|---------------------------------------------------------------|                                           |------------------------------------| 
|---------------------------------------------------------------|                                           |------------------------------------| 
|----0-------0-------0-------0-------0-------0-------0-------0--|                                           |----0-------0-------0---------------| 
|--0---0---0---0---4---4---4---4---5---5---5---0---0---0---0---0| repeat 2x (on 2nd time at the ending play |--0---0---0---0---0---0-------------|                    
|----------------5-------5-------7-------7-------3-------3------|                                           |3-------3-------3-------3 (hold out)| 
|3-------3------------------------------------------------------|                                           |------------------------------------| 

	  

Request the video "Your Call"  -  Send "Your Call" Ringtone to your Cell

there isn't a video lesson for this song

request
Search
auto scroll beats size up size down change color hide chords drawings
tab show chords e-chords YouTube Clip e-chords hide all tabs e-chords go to top tab