Scorpions

home > Scorpions > chords

Life is too short (solo+cifras) Tab

Scorpions

Difficulty: BeginnerBeginner

by lelocrau

tuner correct add songbook print version text version rtf version e-mail
chordsukulelecavacokeyboardtabbassdrumsharmonicsflute Guitar Pro
chords

Life is too short (solo+cifras)

	  Life is too short 
 
INTRO: Violão 1 
  
 
     F#m          E                F#m                E                F#m 
                    
e|---------2-|        |---------2---2---2---2---2-|       |---------2---2---2---2---2-| 
b|-----------|        |-----------2---2---2---2---|       |-----------2---2---2---2---| 
g|-------2---|   7x   |-------2-------------------|   7x  |-------2-------------------| 
d|-----4-----|        |-----4---------------------|       |-----4---------------------| 
a|---4-------|        |---4-----------------------|       |---4-----------------------| 
E|-2---------|        |-2-------------------------|       |-2-------------------------| 
 
 
INTRO: Violão 2 
 
      F#m                       E                                   F#m                                     E 
  
e|---------2-|---0-----0-----0-----0-----0-----0-----|---------2---2---2---2---2---2---|---0-----0-----0-----0-----0-----0-----| 
b|-----------|-----0-----0-----0-----0-----0-----0---|-----------2---2---2---2---2---2-|-----0-----0-----0-----0-----0-----0---| 
g|-------2---|-------1-----1-----1-----1-----1-----1-|-------2-------------------------|-------1-----1-----1-----1-----1-----1-| 
d|-----4-----|---------------------------------------|-----4---------------------------|---------------------------------------| 
a|---4-------|---------------------------------------|---4-----------------------------|---------------------------------------| 
E|-2---------|-0-------------------------------------|-2-------------------------------|-0-------------------------------------| 
 
 
Batida final da intro: C - G - Am (Para cima e para baixo) 
 
Obs: O acompanhamento da música é a intro. 
 
Refrão: 
 
          C 
And you run 
 G                D      
'cause life is too short 
 C           G               Am 
and you run 'cause life is too short 
 
 D                       Am            
There's a time that once to back time 
     E           
but I don't say I can't  
          C             G             Am      
We don't works if you believe in the true  
 
 
SOLO DE LIGAÇÃO:  
 
e|--------------------| 
b|--------------------| 
g|--------------------| 
d|-----------3-4-5(b)-| 
a|-0-1-2-3-4----------| 
E|--------------------| 
 
 
 F                             E  
But there's time to leave and time to cry 
G                Am 
but if you by my side 
E 
I will try to cacth a star 
G                                  F 
I'LL try to cacth a star just for you 
 
 
SOLO: Violão 2 volta para a intro e o violão 1 faz o solo. 
 
e|----------------------------------------------------------------------------------3----------------| 
b|-5(b)~--4(b)-5-3-------------7(b)~--6-5-5-6-7(b)-7-6-5~--6(b)-7-5-5-6-7-6-5~/4-5----3-4(b)-5-3-----| 
g|-----------------5-0-5-7-5-6-------------------------------------------------------------------5/7-| 
d|---------------------------------------------------------------------------------------------------| 
a|---------------------------------------------------------------------------------------------------| 
E|---------------------------------------------------------------------------------------------------| 
 
  
 And you run  
'cause life is too short...life is too short. 
 
 
 
*continue fazendo a batida do Refrão até o fim da música. 
 
 
Qualquer dúvida ou sugestão mande um e-mail para mv.sil@bol.com.br 
 
 
 
 

	  

Request the video "Life is too short (solo+cifras)"  -  Send "Life is too short (solo+cifras)" Ringtone to your Cell

there isn't a video lesson for this song

request
Full key step upFull key step up
Half key step upHalf key step up
Half key step downHalf key step down
Full key step downFull key step down
Search
auto scroll beats size up size down change color hide chords drawings
tab show chords e-chords YouTube Clip e-chords hide all tabs e-chords go to top tab