Scorpions

home > Scorpions > chords

Coast to Coast Tab

Scorpions

Difficulty: BeginnerBeginner

by Andre020182

tuner correct add songbook print version text version rtf version e-mail
chordsukulelecavacokeyboardtabbassdrumsharmonicsflute Guitar Pro
chords

Coast to Coast

Year: 1979 - Album: Lovedrive

(Schenker)

	  intro 
 
---------------------------------------------------- 
---------------------------------------------------- 
---------------------------------------------------- 
--9--9----9---9--9--9-----9--9--9--9--9---9--9------ 
--7--7----7---7--7--7----10--7--9--7--10--7--7------ 
--------0------------------------------------------- 
 
rhythm 1						 
---------------------------------------------------- 
--8--7---7--7--5-----8--7---7--7---10--------------- 
--9--7---7--7--5-----9--7---7--7---11--------------- 
---------------------------------------------------- 
---------------------------------------------------- 
---------------------------------------------------- 
 
rhythm 2 
--------------------------------------------------------------------- 
--8--8--8--8---5--5--5---5--7--7--7--7--8--8--8--8--10--10--10---10-- 
--9--9--9--9---5--5--5---5--7--7--7--7--9--9--9--9--11--11--11---11-- 
--------------------------------------------------------------------- 
--------------------------------------------------------------------- 
--------------------------------------------------------------------- 
 
-------------------------------------------------------------------- 
--5--5--5--5--8--8--8--8---8--7--10--9--(8)------------------------- 
--5--5--5--5--9--9--9--9---9--7--11--9--(9)------------------------- 
-------------------------------------------------------------------- 
-------------------------------------------------------------------- 
-------------------------------------------------------------------- 
 
lead 1 
---------------------------------------------------- 
---------------------------------------------------- 
---------------------------------------------------- 
--5--/9--10--9h10p9--s7--5--7--5h7p5--4------------- 
-----------------------------------------5--/s7----- 
---------------------------------------------------- 
 
---------------------------------------------------- 
---------------------------------------------------- 
---------------------------------------------------- 
--5--/9--12--10--9--7--9--10p7--9------------------- 
---------------------------------------------------- 
---------------------------------------------------- 
 
  
---------------------------------------------------- 
---------------------------------------------------- 
---------------------------------------------------- 
--5--/9--10--9h10p9--s7--5--7--5h7p5--4------------- 
-----------------------------------------5--/s7----- 
---------------------------------------------------- 
 
---------------------------------------------------- 
---------------------------------------------------- 
---------------------------------------------------- 
--5--/9--/7----------------------------------------- 
---------------------------------------------------- 
---------------------------------------------------- 
 
rhythm 3 
--------------------------------- 
--------------------------------- 
-7--7--7--7--7------------------- 
-7--7--7--7--7------------------- 
-5--5--5--5--5------------------- 
--------------------------------- 
 
rhythm before solo 
---------------------------------------------------- 
--8--7--8------------------------------------------- 
--9--7--9------------------------------------------- 
---------------------------------------------------- 
---------------------------------------------------- 
---------------------------------------------------- 
 
rhythm during solo 
---------------------------------------------------- 
---------------------------------------------------- 
-9-----------5-----9---------9----------7----9------ 
-9----/5-----5-----9---------9---/5-----7----9------ 
-7----/5-----3-----7---------7---/5-----5----7------ 
------/3-------------------------/3----------------- 
 
rhythm 1, then rhythm 3 underneath solo 
rhythm 2 
 
lead 1 
rhythm 3 
rhythm 1 
 
. 
 
 
 

	  

Request the video "Coast to Coast"  -  Send "Coast to Coast" Ringtone to your Cell

there isn't a video lesson for this song

request
e-chords
Search
auto scroll beats size up size down change color hide chords drawings
tab show chords e-chords YouTube Clip e-chords hide all tabs e-chords go to top tab