Sandy Sandoro

home > Sandy Sand... > chords

Be My Lady Tab

Sandy Sandoro

Difficulty: nolevelnolevel

by aman_claudino

tuner correct add songbook print version text version rtf version e-mail
chordsukulelecavacokeyboardtabbassdrumsharmonicsflute Guitar Pro
chords

Be My Lady

	  INTRO 
e-------------------------------------------------------------| 
B--------------0------4-----5--4--------5-----4h5p4-----------| 
G------1--2/4------------4--------4------------------4--------| 
D----2-------------2-----------------6------------------6-----| 
A--2---------------------------4-----------4------------------| 
E-------------------------------------------------------------| 

e-----------------------------------0-------------------------| 
A-2--------0------------------------0-----5-----5-------------| 
D-------------------1h2p1--------1--------4-----4-------------| 
G----2--2--------2------------2--------4-----6----------------| 
B-0-----------0-----------------------------------------------| 
E--------------------------0----------------------------------| 

e----------------------------------------------------4---5-------| 
B--------------0------4-----5--4--------5---------5------------5-| 
G------1--2/4------------4--------4------------4------------6----| 
D----2-------------2-----------------6------6------------7-------| 
A--2---------------------------4---------------------------------| 
E----------------------------------------------------------------| 

e--4--------------5--------4-------------------------------------| 
B--------5-----5--------5--------5/7-----5---7/9--9--9--------9--| 
G--------------------6----------------6------6/9--9--9------9----| 
D-----7-----7-----7-----------7--------------7/9--9--9----9------| 
A----------------------------------------------------------------| 
E----------------------------------------------------------------| 

e----------------| 
B--7-----4--4----| 
G--6-----5--5----| 
D-----7----------| 
A----------------| 
E----------------| 


VERSE 
e-------------------------------------------------------------       | 
B--------------0------4-----5--4--------5-----4h5p4-----------       | 
G------1--2/4------------4--------4------------------4--------       | 
D----2-------------2-----------------6------------------6-----       | 
A--2---------------------------4-----------4------------------       | 
E-------------------------------------------------------------       | 
   Since   I've known     you     there                                       |--2x 
   But     there's no    yours sincerely                                 | 
                                                                     | 
e------------------------------------0------------------------       | 
B--2--------0------------------------0-----5-----5------------       | 
G--------------------1h2p1--------1--------4-----4------------       | 
D-----2--2--------2------------2--------4-----6---------------       | 
A--0-----------0----------------------------------------------       | 
E---------------------------0---------------------------------       | 
  You were a light               for me 
   Build me a world             to believe 
e-----------0-------------2--0-------------0---------0-----------2--| 
B-----------0-------------4--2-------------0---------0-----------4--| 
G--2--1--2-------2--1--2--4--2----2--1--2-------1/2-----2--1--2--4--| 
D--2-------------2----------------2---------------------2-----------| 
A--0-------------0----------------0-----------0---------0-----------| 
E-------------------------------------------------------------------| 
  But still there's a doubt In you for loving me     Though deep down inside              
   You see what's in me 

e------------0--------------| 
B---------4--------4--------| 
G------4--------4--------4--| 
D---------------------------| 
A---2-----------------2-----| 
E---------------------------| 


Chorus 
e-----------0--------------------4--------------------0--------| 
B-----------0--------0-----------5--------5-----------2--------| 
G-----------------1-----------4--------4-----------2---------2-| 
D--------2-----2-----------6--------6-----------2---------2----| 
A-----2-----------------4--------------------0-----------------| 
E--0-----------------------------------------------------------| 
   Be my lady be the one and        great things will come to our         heart 

e-----------0--------------| 
B--------4-----2-----2--0--| 
G-----4-----------2--------| 
D--------------------------| 
A--2-----------0-----------| 
E--------------------------| 

e-----------0--------------------4--------------------0-----------| 
B-----------0--------0-----------5--------5-----------2---------0-| 
G-----------------1-----------4--------4-----------2---------4----| 
D--------2-----2-----------6--------6-----------2---------2-------| 
A-----2-----------------4--------------------0--------------------| 
E--0--------------------------------------------------------------| 
  Youre my lady youre the one       give me chance to show you            love 

e-----------0-----------| 
B--------4--------------| 
G-----4--------------4--| 
D-----------------2-----| 
A--2-----------0--------| 
E-----------------------| 

INTRO 2 
e----------------------------------------------------4---5-------| 
B--------------0------4-----5--4--------5---------5------------5-| 
G------1--2/4------------4--------4------------4------------6----| 
D----2-------------2-----------------6------6------------7-------| 
A--2---------------------------4---------------------------------| 
E----------------------------------------------------------------| 




e--4--------------9----------7----5-----------------------------| 
B--------5-----5--10---------9----7----5----7/9--9--9--------9--| 
G-------------------------9------------4----6/9--9--9-----9-----| 
D-----7-----7---------11-------------------------------9--------| 
A-----------------0----------0----0---------0-------------------| 
E---------------------------------------------------------------| 

e--------------|----------| 
B--4-h5--7--5--|-------0--| 
G--4-----------|-----2----| 
D--4-h6--7--6--|---2------| 
A--------------|----------| 
E--------------|----------| 

BACK TO VERSE 

line terkhir diganti: 
e------------0-------------------------------0--------| 
B---------4--------4-------------------4--0--------0--| 
G------4--------4--------4----------4-----------------| 
D--------------------------------4--------------------| 
A---2-----------------2-------------------------0-----| 
E----------------------------/7-----------------------| 

BACK TO Chorus 

Chorus 2 
e-----------1-----------------------------------------1-----------| 
B-----------1--------1-----------5--6-----------------1-----1-----| 
G-----------------2-----------5-----------5--------3-----3-----3--| 
D--------3-----3-----------7-----------7--------3-----------------| 
A-----3-----------------5--------------------1--------------------| 
E--1--------------------------------------------------------------| 
  Be my lady be the one and        great things will come to our         heart 

e--------------------------| 
B-----------3-----------1--| 
G--5-----5-----------3-----| 
D-----5-----------3--------| 
A--3-----------1-----------| 
E--------------------------| 


e-----------1-----------------------------------------1-----------| 
B-----------1--------1-----------5--6-----------------1-----1-----| 
G-----------------2-----------5-----------5--------3-----3-----3--| 
D--------3-----3-----------7-----------7--------3-----------------| 
A-----3-----------------5--------------------1--------------------| 
E--1--------------------------------------------------------------| 
    Youre my lady youre the one       give me chance to show you            love 

e--------------------------| 
B-----------3-----------1--| 
G--5-----5-----------3-----| 
D-----5-----------3--------| 
A--3-----------1-----------| 
E--------------------------| 





e-----------1-----------------------------------------1-----------| 
B-----------1--------1-----------5--6-----------------1-----1-----| 
G-----------------2-----------5-----------5--------3-----3-----3--| 
D--------3-----3-----------7-----------7--------3-----------------| 
A-----3-----------------5--------------------1--------------------| 
E--1--------------------------------------------------------------| 
   Be my lady be the one and        great things will come to our         heart 

e--------------------------| 
B-----------3-----------1--| 
G--5-----5-----------3-----| 
D-----5-----------3--------| 
A--3-----------1-----------| 
E--------------------------| 


e-----------1------------------------------------------1----------------| 
B-----------1--------1-----------5--6------------3-----------3----------| 
G-----------------2-----------5---------------3-----3-----3-----3-------| 
D--------3-----3-----------7--------------------------------------------| 
A-----3-----------------5------------------1----------------------------| 
E--1--------------------------------------------------------------------| 


e--1-----1-----1-----------0-------------8--| 
B--3-----3-----3---------1---------------8--| 
G--3--3-----3-----3----0--------------------| 
D--------------------2----------------10----| 
A-----------------------------------8-------| 
E-------------------------------------------| 
	  

Request the video "Be My Lady"  -  Send "Be My Lady" Ringtone to your Cell

there isn't a video lesson for this song

request
Search
auto scroll beats size up size down change color hide chords drawings
tab show chords e-chords YouTube Clip e-chords hide all tabs e-chords go to top tab