Rojo

home > Rojo > chords

Gasolina Tab

Rojo

Difficulty: ExpertExpert

by lucicamargo

tuner correct add songbook print version text version rtf version e-mail
chordsukulelecavacokeyboardtabbassdrumsharmonicsflute Guitar Pro
chords

Gasolina

(Emanuel Espinoza)

Key:  C#5 More
Gasolina Key G5G5
Gasolina Key G#5G#5
Gasolina Key A5A5
Gasolina Key A#5A#5
Gasolina Key B5B5(one step down)
Gasolina Key C5C5(half step down)
Gasolina Key C#5C#5(original key)
Gasolina Key D5D5(half step up)
Gasolina Key D#5D#5(one step up)
Gasolina Key E5E5
Gasolina Key F5F5
Gasolina Key F#5F#5
	  ESTO ES LA BASE DE LAS ESTROFAS SE PUEDE HACER CON  
TAP O CON ACORDE. 
E---------------5--4--// 
A---4-4-4-4-4-4----0--// 
D---------------------// 
G---------------------// 
B---------------------// 
E---------------------// 

C#5 A5 G#5 

Trafico mental, muy poca claridad 
Lo intento una vez mas y logro depegar. 

ESTE ES EL 2DO ESTRIBILLO EN TAB PERO 
IGUAL TIENE ACORDE. 

E--7----4---//-------------5--4--// 
A--9----6---//-4-4-4-4-4-4----0--// 
D--9----6---//-------------------// 
G--0----0---//-------------------// 
B--0----0---//-------------------// 
E--0----0---//-------------------// 

B5      G#5             C#5  A5 G#5 
La confusion se queda atras, 

B5      G#5             C#5  A5  G#5 
y tu impulso es tan real. 


-Coro- 
E5                 F#5 
Eres gasolina que me enciende a creer 
A5                  C#5 B5 
nunca nada va a detenerme, 
E                 F#5 
Tú eres la flama que siempre me hace renacer 
A5                  C#5 B5    A5 
dejaria todo por tenerte en mi. 

E---------------5--4--// 
A---4-4-4-4-4-4----0--// 
D---------------------// 
G---------------------// 
B---------------------// 
E---------------------// 

Mueves el motor, de todo lo que soy 

me arriesgo mientras tu, mantienes el cotrol. 

E--7----4---//-------------5--4--// 
A--9----6---//-4-4-4-4-4-4----0--// 
D--9----6---//-------------------// 
G--0----0---//-------------------// 
B--0----0---//-------------------// 
E--0----0---//-------------------// 


B5      G#5             C#5  A5 G#5 
Puedo ver con claridad 
B5      G#5             C#5  A G#5 
y correr sin decansar. 

     BASS 
B---------------------// 
E---------------5--4--// 
A---4-4-4-4-4-4----0--// 
D---------------------// 
ESTA ES LA MISMA BASE PERO EN BAJO. 

PUES ESO SERIA TODO ESTA MUY FACIL SOLO GUIENSE 
POR LA GRAVACION Y ESCUCHEN BIEN. 
SALUDOS A FILADELFIA A DAVID (PRIMATE Y MEJOR AMIGO) 
Y A CHRISTIAN
	  

Request the video "Gasolina"  -  Send "Gasolina" Ringtone to your Cell

there isn't a video lesson for this song

request
Full key step upFull key step up
Half key step upHalf key step up
Half key step downHalf key step down
Full key step downFull key step down
e-chords
Search
auto scroll beats size up size down change color hide chords drawings
tab show chords e-chords YouTube Clip e-chords hide all tabs e-chords go to top tab