Robert Johnson

home > Robert Joh... > chords

Terraplane Blues Tab

Robert Johnson

Difficulty: EasyEasy

by paulantunes

tuner correct add songbook print version text version rtf version e-mail
chordsukulelecavacokeyboardtabbassdrumsharmonicsflute Guitar Pro
chords

Terraplane Blues

	  

  

D||--------------12--12--|--12--3--3-2--------------------------| 
B||--------------12--12--|--12--3--3-2-0------------------------| 
G||----------------------|---------------0----0--0--0--0--0--0--| 
D||----------------------|--------------------3--3--2--0-----0--| 
G||----------------------|-----------------0--0--0--------------| 
D||----------------------|--------------------------------------| 

  
D||-----5--3--5-----3--5--0----|-------5--5--5-----------------| 
B||-----0--0--0-----0--0--0----|----6--6--6--6--6--6--6--0-----| 
G||--0--0--0--0--0--0--0--0----|----7--7--7--7--7--7--7--0-0-0-| 
D||--0-----0--0--0-----0--0----|---------------------------0-0-| 
G||--0-----0--0--------0--0----|-------------------------------| 
D||----------------------------|-------------------------------| 

D||--------5--5--5--5--5---------|--------5--5--5--5--5--5--------| 
B||-----6--6--6--6--6--6---------|-----6--6--6--6--6--6--6--0-----| 
G||-----7--7--7--7--7--7---------|-----7--7--7--7--7--7--7--0-0-0-| 
D||-----------------------x------|--------0--0--0--------0----0-0-| 
G||--0--------------------x------|--0--------------0--------------| 
D||--------------------------0/4-|--------------------------------| 


D||-----5--3--3--3-----5--0--0----|-----8-----------8-------------| 
B||-----0--0--0--0--------0--0----|--------5-----5--5-------------| 
G||--------0--0--0--------0--0----|--------5--0--5--5-------------| 
D||--0--5--0--0-----------0-------|-----------------5----x--x-x-x-| 
G||--0-----0--0-----0-----0-------|--0-------------------x--0-0-0-| 
D||-------------------------------|-------------------------------| 


D||-----8-----------8--5-------|--------5--5--5--5--5--3--------| 
B||--------5-----5--5--5-------|-----6--6--6--6--6--6--3--0-0-0-| 
G||--------5--5--5-------------|--0--7--7--7--7--7--7-----0-0-0-| 
D||-----------------5-----5----|--------0--0--0-----0--0--0-0-0-| 
G||--0-------------------------|-----------------0--------------| 
D||----------------------------|--------------------------------| 


D||-----5--3--4--5------------|--9--0-------------------| 
B||-----0--0--0--0------------|-------------------------| 
G||--------0--0--0------------|-------------------------| 
D||--0--------------0----x----|----------5~-------------| 
G||--0--------------0----x----|-------------------------| 
D||---------------------------|-------------------------| 


D||----5--3--5-----5-0-0--------|----5-3--3--5--------------| 
B||----0--0--0-----0-0-0--0-0-0-|------0--0--0--------------| 
G||----0--0--0-------x-0--0-0-0-|--0---0--0--0--0-----------| 
D||-------------x------0--0-0-0-|--0---0--0-----0-----------| 
G||-------------x---------0-0-0-|--0---0--0-----0--0--3---4-| 
D||-----------------------------|---------------------------| 

  
D||-------------------------|----------5--------------|-------5--5--------------| 
B||-------6--6--------------|-------6--6--------------|-------6--6--------------| 
G||-------7--7--------------|-------7--7--------------|-------7--7--------------| 
D||--0----------------------|--0----------------------|--0----------------------| 
G||-------------0--0--3---4-|-------------0--0--3---4-|-------------0--0--3---4-| 
D||-------------------------|-------------------------|-------------------------| 

  

D||-------5--5-------------|-----8-----------8---------------| 
B||-------6--6-------------|--------5-----5--5--5-----5------| 
G||-------7--7----------0--|--------5--8--5--5--5--8--5------| 
D||--0---------------------|--5-----5--5--5--5--5--5--5--2/4-| 
G||-------------0----0-----|---------------------------------| 
D||------------------------|---------------------------------| 

  
D||-----8--5--------8--5------|----12--12--12--12--12--12--12----------| 
B||--------5-----5--5---------|----12--12--12--12--12--12--12--12\-0---| 
G||--------5--8--5------------|--------12--12--12--------------12\-0---| 
D||-----------5--5------------|----------------------------------------| 
G||--0------------------------|----------------------------------------| 
D||---------------------------|--------------------------------------2-| 

  
D||-----5-3-3--3-----5-5-0----|------9--0-----------|----------------| 
B||-----0-0-0--0-----0-0-0----|---------------------|----------------| 
G||-----0-0-0--0-----0-0-0----|---------------------|-------------0--| 
D||---------------x-----------|------------------5~-|----------4-----| 
G||--0------------x-----------|---------------------|----------------| 
D||---------------------------|---------------------|----------------| 

  
D||-----5--3--3-----5-0-3--------|-----5--3--5-----------|| 
B||-----0--0--0-------0-0--------|-----0--0--0-----------|| 
G||-----0--0--0-------0-0--------|--0--0--0--0--0--------|| 
D||--------------x------0--0-0-0-|--0--0--0--0--0--------|| 
G||--0-----------x---------0-0-0-|--0--0--0--0--0--------|| 
D||------------------------------|-----------------------|| 
	  

Request the video "Terraplane Blues"  -  Send "Terraplane Blues" Ringtone to your Cell

there isn't a video lesson for this song

request
Search
auto scroll beats size up size down change color hide chords drawings
tab show chords e-chords YouTube Clip e-chords hide all tabs e-chords go to top tab