Rise Against

home > Rise Again... > chords

Satellite Tab

Rise Against

Difficulty: BeginnerBeginner

by mar-gobbo

tuner correct add songbook print version text version rtf version e-mail
chordsukulelecavacokeyboardtabbassdrumsharmonicsflute Guitar Pro
chords

Satellite

	  
Intro:
 
Clean 
e|----------------------| 
B|----------------------| 
G|-10---8---8---10------| 
D|-10---6---8---8-------|   X4 
A|-8----6---6---8-------| 
D|------6-------8-------| 


Chorus 
Disto 
e|---------------------------------------------------------------------------| 
B|--------------------------------------------------------4-6----------------| 
G|---------8----------------8---6--8----------5---5-3------------------------| 
D|-3---6---8---8----3---6---8---6--8---X2-----3-------5-6-------3------------| 
A|-3---6---6---8----3---6---6---4--6----------3------------------------------| 
D|-3---6-------8----3---6---------------------3------------------------------| 


Verse 
Disto	 
e|---------4-3--------------------| 
B|----4-----------4-----4-6-------| 
G|--5-----------5-----3-----------| 
D|--------------------------------|   X2 
A|--------------------------------| 
D|--------------------------------| 

(PICK SLIDE) 

Chorus 
Disto 
e|----------------------------------------| 
B|----------------------------------------| 
G|---------8----------------8---6--8------| 
D|-3---6---8---8----3---6---8---6--8------|  X2 
A|-3---6---6---8----3---6---6---4--6------| 
D|-3---6-------8----3---6-----------------| 




Bridge Part 1 
Disto 
e|-----------------| 
B|-----------------| 
G|--6---8---6---8--| 
D|--6---8---6---8--| 
A|--4---6---4---6--| 
D|-----------------| 


Bridge Part 2 
Clean 
e|-------4---6-------| 
B|--9----6---8---11--| 
G|--10---6---8---10--| 
D|--10---6---8---8---|  X4 
A|--8------------8---| 
D|---------------8---| 

Bridge Part 3 
Disto 
e|-------------------------------------| 
B|-------------------------------------| 
G|------6---8-------------6--8--6--8---| 
D|--3---6---8---8---X4----6--8--6--8---| 
A|--3---4---6---8---------4--6--4--6---| 
D|--3-----------8----------------------| 

Chorus 
Disto 
e|-------------------------------------------| 
B|-------------------------------------------| 
G|------------------------------3------------| 
D|-3----(Drum solo)--1--3---------5-6-5-1-3--| 
A|-3-----------------1--3--------------------| 
D|-3-----------------1--3--------------------| 

e|-------------------------------| 
B|-------------------------------| 
G|---------8----------------8--8-| 
D|-3---6---8---8----3---6---8--8-| 
A|-3---6---6---8----3---6---6--6-| 
D|-3---6-------8----3---6--------| 

End 
Disto 
e|--------------------------------------------| 
B|--------------------------------------------| 
G|-6-6--xxx--6-6--xxx--6-6--xxx--6-6--xxx-----| 
D|-6-6--xxx--6-6--xxx--6-6--xxx--6-6--xxx--3--| 
A|-4-4--xxx--4-4--xxx--4-4--xxx--4-4--xxx--3--| 
D|-----------------------------------------3--|  
	  

Request the video "Satellite"  -  Send "Satellite" Ringtone to your Cell

there isn't a video lesson for this song

request
Search
auto scroll beats size up size down change color hide chords drawings
tab show chords e-chords YouTube Clip e-chords hide all tabs e-chords go to top tab