Red Hot Chili Peppers

home > Red Hot Ch... > chords

Easily (ver. 2) Tab

Red Hot Chili Peppers

Difficulty: nolevelnolevel

by drkblaze

tuner correct add songbook print version text version rtf version e-mail
chordsukulelecavacokeyboardtabbassdrummharmonicsflute Guitar Pro
chords

Easily (ver. 2)

	  E||--0---0-0---0------------|----1--1----1--------------| 
B||--1---1-1---1---------3--|----3--3--3-3-3-----3--3-3-| 
G||--2---2-2---2-2r---0--2--|----2--2--2-2-2h0---0--0-0-| 
D||--2---2-2---2---------0--|----0--0--0-0-0-----0--0-0-| 
A||--0---0-0---0------------|---------------------------| 
E||-------------------------|---------------------------| 
 
 
                                                           
----------------------0----|-----------------------------| 
--1----1---1-1-0-1----1-1--|----1--1-1--1-1-1-1--1-1-1-1-| 
--2----2---2-2-0-0--0---2--|----2--2-2--2-2-2-2--2-2-2-2-| 
--3----3---3-3-0-2--2---2--|----2--2-2--2-2-2-2--2-2-2-2-| 
-------3---3-3----------0--|----0--0-0--0-0-0-0--0-0-0-0-| 
---------------------------|-----------------------------| 
 
 
                                                                                 
--0----0---0-0--0--0--1--|----0--1--0-0-1-1-0--0------|--1------------------0--| 
--1----1---1-1--1--1--3--|----3--3--3-3-3-3-3--3--3-3-|--1----1---1-1--1----1--| 
--2----2---2-2--2--2--2--|----2--2--2-2-2-2-2--2--2-2-|--2----2---2-2--0----2--| 
--2----2---2-2--2--2--0--|----0--0--0-0-0-0-0--0--0-0-|--3----3---3-3--2----2--| 
--0----0---0-0--0--0-----|----------------------------|---------------------0--| 
-------------------------|----------------------------|------------------------| 
 
 
                                                          
----0--0-0--0-0-0-0-0-0-0-0-0-|--0----0---0-0--0--0--1--| 
----1--1-1--1-1-1-1-1-1-1-1-1-|--1----1---1-1--1--1--3--| 
----2--2-2--2-2-2-2-2-2-2-2-2-|--2----2---2-2--2--2--2--| 
----2--2-2--2-2-2-2-2-2-2-2-2-|--2----2---2-2--2--2--0--| 
----0--0-0--0-0-0-0-0-0-0-0-0-|--0----0---0-0--0--0-----| 
------------------------------|-------------------------| 
 
 
                                                       
----0--1--0-0-1-1-0--0------|--1------------------0--| 
----3--3--3-3-3-3-3--3--3-3-|--1----1---1-1--1----1--| 
----2--2--2-2-2-2-2--2--2-2-|--2----2---2-2--0----2--| 
----0--0--0-0-0-0-0--0--0-0-|--3----3---3-3--2----2--| 
----------------------------|---------------------0--| 
----------------------------|------------------------| 
 
 
                                                          
 
 
 
 
 
 
----0--0-0--0-0-0-0-0-0-0-0-0-|--0----0---0-0--0--0--1--| 
----1--1-1--1-1-1-1-1-1-1-1-1-|--1----1---1-1--1--1--3--| 
----2--2-2--2-2-2-2-2-2-2-2-2-|--2----2---2-2--2--2--2--| 
----2--2-2--2-2-2-2-2-2-2-2-2-|--2----2---2-2--2--2--0--| 
----0--0-0--0-0-0-0-0-0-0-0-0-|--0----0---0-0--0--0-----| 
------------------------------|-------------------------| 
                                                      
----0--1--0-0-1-1-0--0------|--1------------------0--| 
----3--3--3-3-3-3-3--3--3-3-|--1----1---1-1--1----1--| 
----2--2--2-2-2-2-2--2--2-2-|--2----2---2-2--0----2--| 
----0--0--0-0-0-0-0--0--0-0-|--3----3---3-3--2----2--| 
----------------------------|---------------------0--| 
----------------------------|------------------------| 
                                                          
----0--0-0--0-0-0-0-0-0-0-0-0-|--0----0---0-0--0--0--1--| 
----1--1-1--1-1-1-1-1-1-1-1-1-|--1----1---1-1--1--1--3--| 
----2--2-2--2-2-2-2-2-2-2-2-2-|--2----2---2-2--2--2--2--| 
----2--2-2--2-2-2-2-2-2-2-2-2-|--2----2---2-2--2--2--0--| 
----0--0-0--0-0-0-0-0-0-0-0-0-|--0----0---0-0--0--0-----| 
------------------------------|-------------------------| 
 
 
                                                        
----0--1--0-0-1-1-0--0------|--1----1--1-1-1--3--0----| 
----3--3--3-3-3-3-3--3--3-3-|--1----1--1-1-1--1--1----| 
----2--2--2-2-2-2-2--2--2-2-|--0----0--0-0-0--0--2----| 
----0--0--0-0-0-0-0--0--0-0-|--3----3--3-3-3--2--2----| 
----------------------------|--------------------0----| 
----------------------------|-------------------------| 
 
 
                                                                                 
----0--0-0--0-0-0-0--0---8--|--8--8--8--8--8--8--8--8--8--8--8--8--8--8--8--8--| 
----1--1-0--0-1-1-1--1---8--|--8--8--8--8--8--8--8--8--8--8--8--8--8--8--8--8--| 
----2--2-2--2-2-2-2--2---9--|--9--9--9--9--9--9--9--9--9--9--9--9--9--9--9--9--| 
----2--2-2--2-2-2-2--2---10-|--10-10-10-10-10-10-10-10-10-10-10-10-10-10-10-10-| 
----0--0-0--0-0-0-0--0------|--x--x--x--x--x--x--x--x--x--x--x--x--x--x--x--x--| 
----------------------------|--8--8--8--8--8--8--8--8--8--8--8--8--8--8--8--8--| 
 
 
                                    
--3-3-3-3-3-3-3-3-1-1-1-1-1-1-1-1-| 
--3-3-3-3-3-3-3-3-1-1-1-1-1-1-1-1-| 
--4-4-4-4-4-4-4-4-2-2-2-2-2-2-2-2-| 
--5-5-5-5-5-5-5-5-3-3-3-3-3-3-3-3-| 
--x-x-x-x-x-x-x-x-x-x-x-x-x-x-x-x-| 
--3-3-3-3-3-3-3-3-1-1-1-1-1-1-1-1-| 
 
 
                                                    
--8--8--8--8--8--8--8--8--8--8--8--8--8--8--8--8--| 
--8--8--8--8--8--8--8--8--8--8--8--8--8--8--8--8--| 
--9--9--9--9--9--9--9--9--9--9--9--9--9--9--9--9--| 
--10-10-10-10-10-10-10-10-10-10-10-10-10-10-10-10-| 
--x--x--x--x--x--x--x--x--x--x--x--x--x--x--x--x--| 
--8--8--8--8--8--8--8--8--8--8--8--8--8--8--8--8--| 
 
 
                                                                       
--3-3-3-3-3-3-3-3-1-1-1-1-1-1-1-1-|--5-5-5-5-5-5-5-5-5-5-5-5-5-5-5-5-| 
--3-3-3-3-3-3-3-3-1-1-1-1-1-1-1-1-|--5-5-5-5-5-5-5-5-5-5-5-5-5-5-5-5-| 
--4-4-4-4-4-4-4-4-2-2-2-2-2-2-2-2-|--5-5-5-5-5-5-5-5-5-5-5-5-5-5-5-5-| 
--5-5-5-5-5-5-5-5-3-3-3-3-3-3-3-3-|--7-7-7-7-7-7-7-7-7-7-7-7-7-7-7-7-|  2X 
--x-x-x-x-x-x-x-x-x-x-x-x-x-x-x-x-|--x-x-x-x-x-x-x-x-x-x-x-x-x-x-x-x-| 
--3-3-3-3-3-3-3-3-1-1-1-1-1-1-1-1-|--5-5-5-5-5-5-5-5-5-5-5-5-5-5-5-5-| 
 
 
                                                                       
                                                              
--3-3-3-3-3-3-3-3-1-1-1-1-1-1-1-1-|--0----0---0-0--0--0--1--| 
--3-3-3-3-3-3-3-3-1-1-1-1-1-1-1-1-|--1----1---1-1--1--1--3--| 
--4-4-4-4-4-4-4-4-2-2-2-2-2-2-2-2-|--2----2---2-2--2--2--2--| 
--5-5-5-5-5-5-5-5-3-3-3-3-3-3-3-3-|--2----2---2-2--2--2--0--| 
--x-x-x-x-x-x-x-x-x-x-x-x-x-x-x-x-|--0----0---0-0--0--0-----| 
--3-3-3-3-3-3-3-3-1-1-1-1-1-1-1-1-|-------------------------| 
 
 
                                                       
----0--1--0-0-1-1-0--0------|--1------------------0--| 
----3--3--3-3-3-3-3--3--3-3-|--1----1---1-1--1----1--| 
----2--2--2-2-2-2-2--2--2-2-|--2----2---2-2--0----2--| 
----0--0--0-0-0-0-0--0--0-0-|--3----3---3-3--2----2--| 
----------------------------|---------------------0--| 
----------------------------|------------------------| 
 
 
                                                          
----0--0-0--0-0-0-0-0-0-0-0-0-|--0----0---0-0--0--0--1--| 
----1--1-1--1-1-1-1-1-1-1-1-1-|--1----1---1-1--1--1--3--| 
----2--2-2--2-2-2-2-2-2-2-2-2-|--2----2---2-2--2--2--2--| 
----2--2-2--2-2-2-2-2-2-2-2-2-|--2----2---2-2--2--2--0--| 
----0--0-0--0-0-0-0-0-0-0-0-0-|--0----0---0-0--0--0-----| 
------------------------------|-------------------------| 
 
 
                                                       
----0--1--0-0-1-1-0--0------|--1------------------0--| 
----3--3--3-3-3-3-3--3--3-3-|--1----1---1-1--1----1--| 
----2--2--2-2-2-2-2--2--2-2-|--2----2---2-2--0----2--| 
----0--0--0-0-0-0-0--0--0-0-|--3----3---3-3--2----2--| 
----------------------------|---------------------0--| 
----------------------------|------------------------| 
 
 
                                                          
----0--0-0--0-0-0-0-0-0-0-0-0-|--0----0---0-0--0--0--1--| 
----1--1-1--1-1-1-1-1-1-1-1-1-|--1----1---1-1--1--1--3--| 
----2--2-2--2-2-2-2-2-2-2-2-2-|--2----2---2-2--2--2--2--| 
----2--2-2--2-2-2-2-2-2-2-2-2-|--2----2---2-2--2--2--0--| 
----0--0-0--0-0-0-0-0-0-0-0-0-|--0----0---0-0--0--0-----| 
------------------------------|-------------------------| 
 
 
                                                       
----0--1--0-0-1-1-0--0------|--1------------------0--| 
----3--3--3-3-3-3-3--3--3-3-|--1----1---1-1--1----1--| 
----2--2--2-2-2-2-2--2--2-2-|--2----2---2-2--0----2--| 
----0--0--0-0-0-0-0--0--0-0-|--3----3---3-3--2----2--| 
----------------------------|---------------------0--| 
----------------------------|------------------------| 
 
 
                                                          
----0--0-0--0-0-0-0-0-0-0-0-0-|--0----0---0-0--0--0--1--| 
----1--1-1--1-1-1-1-1-1-1-1-1-|--1----1---1-1--1--1--3--| 
----2--2-2--2-2-2-2-2-2-2-2-2-|--2----2---2-2--2--2--2--| 
----2--2-2--2-2-2-2-2-2-2-2-2-|--2----2---2-2--2--2--0--| 
----0--0-0--0-0-0-0-0-0-0-0-0-|--0----0---0-0--0--0-----| 
------------------------------|-------------------------| 
 
 
                                                        
----0--1--0-0-1-1-0--0------|--1----1--1-1-1--3--0----| 
----3--3--3-3-3-3-3--3--3-3-|--1----1--1-1-1--1--1----| 
----2--2--2-2-2-2-2--2--2-2-|--0----0--0-0-0--0--2----| 
----0--0--0-0-0-0-0--0--0-0-|--3----3--3-3-3--2--2----| 
----------------------------|--------------------0----| 
----------------------------|-------------------------| 
 
 
                                                                                 
----0--0-0--0-0-0-0--0---8--|--8--8--8--8--8--8--8--8--8--8--8--8--8--8--8--8--| 
----1--1-0--0-1-1-1--1---8--|--8--8--8--8--8--8--8--8--8--8--8--8--8--8--8--8--| 
----2--2-2--2-2-2-2--2---9--|--9--9--9--9--9--9--9--9--9--9--9--9--9--9--9--9--| 
----2--2-2--2-2-2-2--2---10-|--10-10-10-10-10-10-10-10-10-10-10-10-10-10-10-10-| 
----0--0-0--0-0-0-0--0------|--x--x--x--x--x--x--x--x--x--x--x--x--x--x--x--x--| 
----------------------------|--8--8--8--8--8--8--8--8--8--8--8--8--8--8--8--8--| 
 
 
                                    
--3-3-3-3-3-3-3-3-1-1-1-1-1-1-1-1-| 
--3-3-3-3-3-3-3-3-1-1-1-1-1-1-1-1-| 
--4-4-4-4-4-4-4-4-2-2-2-2-2-2-2-2-| 
--5-5-5-5-5-5-5-5-3-3-3-3-3-3-3-3-| 
--x-x-x-x-x-x-x-x-x-x-x-x-x-x-x-x-| 
--3-3-3-3-3-3-3-3-1-1-1-1-1-1-1-1-| 
 
 
                                                    
--8--8--8--8--8--8--8--8--8--8--8--8--8--8--8--8--| 
--8--8--8--8--8--8--8--8--8--8--8--8--8--8--8--8--| 
--9--9--9--9--9--9--9--9--9--9--9--9--9--9--9--9--| 
--10-10-10-10-10-10-10-10-10-10-10-10-10-10-10-10-| 
--x--x--x--x--x--x--x--x--x--x--x--x--x--x--x--x--| 
--8--8--8--8--8--8--8--8--8--8--8--8--8--8--8--8--| 
 
 
                                                                       
 
 
 
--3-3-3-3-3-3-3-3-1-1-1-1-1-1-1-1-|--5-5-5-5-5-5-5-5-5-5-5-5-5-5-5-5-| 
--3-3-3-3-3-3-3-3-1-1-1-1-1-1-1-1-|--5-5-5-5-5-5-5-5-5-5-5-5-5-5-5-5-| 
--4-4-4-4-4-4-4-4-2-2-2-2-2-2-2-2-|--5-5-5-5-5-5-5-5-5-5-5-5-5-5-5-5-|   2X 
--5-5-5-5-5-5-5-5-3-3-3-3-3-3-3-3-|--7-7-7-7-7-7-7-7-7-7-7-7-7-7-7-7-| 
--x-x-x-x-x-x-x-x-x-x-x-x-x-x-x-x-|--x-x-x-x-x-x-x-x-x-x-x-x-x-x-x-x-| 
--3-3-3-3-3-3-3-3-1-1-1-1-1-1-1-1-|--5-5-5-5-5-5-5-5-5-5-5-5-5-5-5-5-| 
                                                                  
 
 
                                    
--3-3-3-3-3-3-3-3-1-1-1-1-1-1-1-1-| 
--3-3-3-3-3-3-3-3-1-1-1-1-1-1-1-1-| 
--4-4-4-4-4-4-4-4-2-2-2-2-2-2-2-2-| 
--5-5-5-5-5-5-5-5-3-3-3-3-3-3-3-3-| 
--x-x-x-x-x-x-x-x-x-x-x-x-x-x-x-x-| 
--3-3-3-3-3-3-3-3-1-1-1-1-1-1-1-1-| 
 
 
                                                    
--8--8--8--8--8--8--8--8--8--8--8--8--8--8--8--8--| 
--8--8--8--8--8--8--8--8--8--8--8--8--8--8--8--8--| 
--9--9--9--9--9--9--9--9--9--9--9--9--9--9--9--9--| 
--10-10-10-10-10-10-10-10-10-10-10-10-10-10-10-10-| 
--x--x--x--x--x--x--x--x--x--x--x--x--x--x--x--x--| 
--8--8--8--8--8--8--8--8--8--8--8--8--8--8--8--8--| 
 
 
                                    
--3-3-3-3-3-3-3-3-1-1-1-1-1-1-1-1-| 
--3-3-3-3-3-3-3-3-1-1-1-1-1-1-1-1-| 
--4-4-4-4-4-4-4-4-2-2-2-2-2-2-2-2-| 
--5-5-5-5-5-5-5-5-3-3-3-3-3-3-3-3-| 
--x-x-x-x-x-x-x-x-x-x-x-x-x-x-x-x-| 
--3-3-3-3-3-3-3-3-1-1-1-1-1-1-1-1-| 
 
 
                                                    
--8--8--8--8--8--8--8--8--8--8--8--8--8--8--8--8--| 
--8--8--8--8--8--8--8--8--8--8--8--8--8--8--8--8--| 
--9--9--9--9--9--9--9--9--9--9--9--9--9--9--9--9--| 
--10-10-10-10-10-10-10-10-10-10-10-10-10-10-10-10-| 
--x--x--x--x--x--x--x--x--x--x--x--x--x--x--x--x--| 
--8--8--8--8--8--8--8--8--8--8--8--8--8--8--8--8--| 
 
 
                                                                       
--3-3-3-3-3-3-3-3-1-1-1-1-1-1-1-1-|--5-5-5-5-5-5-5-5-5-5-5-5-5-5-5-5-| 
--3-3-3-3-3-3-3-3-1-1-1-1-1-1-1-1-|--5-5-5-5-5-5-5-5-5-5-5-5-5-5-5-5-| 
--4-4-4-4-4-4-4-4-2-2-2-2-2-2-2-2-|--5-5-5-5-5-5-5-5-5-5-5-5-5-5-5-5-|  2X 
--5-5-5-5-5-5-5-5-3-3-3-3-3-3-3-3-|--7-7-7-7-7-7-7-7-7-7-7-7-7-7-7-7-| 
--x-x-x-x-x-x-x-x-x-x-x-x-x-x-x-x-|--x-x-x-x-x-x-x-x-x-x-x-x-x-x-x-x-| 
--3-3-3-3-3-3-3-3-1-1-1-1-1-1-1-1-|--5-5-5-5-5-5-5-5-5-5-5-5-5-5-5-5-| 
 
 
                                                                       
 
 
 
                                                              
--3-3-3-3-3-3-3-3-1-1-1-1-1-1-1-1-|--0----0---0-0--0--0--1--| 
--3-3-3-3-3-3-3-3-1-1-1-1-1-1-1-1-|--1----1---1-1--1--1--3--| 
--4-4-4-4-4-4-4-4-2-2-2-2-2-2-2-2-|--2----2---2-2--2--2--2--| 
--5-5-5-5-5-5-5-5-3-3-3-3-3-3-3-3-|--2----2---2-2--2--2--0--| 
--x-x-x-x-x-x-x-x-x-x-x-x-x-x-x-x-|--0----0---0-0--0--0-----| 
--3-3-3-3-3-3-3-3-1-1-1-1-1-1-1-1-|-------------------------| 
 
 
                                                       
----0--1--0-0-1-1-0--0------|--1------------------0--| 
----3--3--3-3-3-3-3--3--3-3-|--1----1---1-1--1----1--| 
----2--2--2-2-2-2-2--2--2-2-|--2----2---2-2--0----2--| 
----0--0--0-0-0-0-0--0--0-0-|--3----3---3-3--2----2--| 
----------------------------|---------------------0--| 
----------------------------|------------------------| 
 
 
                                                          
----0--0-0--0-0-0-0-0-0-0-0-0-|--0----0---0-0--0--0--1--| 
----1--1-1--1-1-1-1-1-1-1-1-1-|--1----1---1-1--1--1--3--| 
----2--2-2--2-2-2-2-2-2-2-2-2-|--2----2---2-2--2--2--2--| 
----2--2-2--2-2-2-2-2-2-2-2-2-|--2----2---2-2--2--2--0--| 
----0--0-0--0-0-0-0-0-0-0-0-0-|--0----0---0-0--0--0-----| 
------------------------------|-------------------------| 
 
 
                                                       
----0--1--0-0-1-1-0--0------|--1------------------0--| 
----3--3--3-3-3-3-3--3--3-3-|--1----1---1-1--1----1--| 
----2--2--2-2-2-2-2--2--2-2-|--2----2---2-2--0----2--| 
----0--0--0-0-0-0-0--0--0-0-|--3----3---3-3--2----2--| 
----------------------------|---------------------0--| 
----------------------------|------------------------| 
 
 
                                                          
----0--0-0--0-0-0-0-0-0-0-0-0-|--0----0---0-0--0--0--1--| 
----1--1-1--1-1-1-1-1-1-1-1-1-|--1----1---1-1--1--1--3--| 
----2--2-2--2-2-2-2-2-2-2-2-2-|--2----2---2-2--2--2--2--| 
----2--2-2--2-2-2-2-2-2-2-2-2-|--2----2---2-2--2--2--0--| 
----0--0-0--0-0-0-0-0-0-0-0-0-|--0----0---0-0--0--0-----| 
------------------------------|-------------------------| 
 
 
                                                       
----0--1--0-0-1-1-0--0------|--1------------------0--| 
----3--3--3-3-3-3-3--3--3-3-|--1----1---1-1--1----1--| 
----2--2--2-2-2-2-2--2--2-2-|--2----2---2-2--0----2--| 
----0--0--0-0-0-0-0--0--0-0-|--3----3---3-3--2----2--| 
----------------------------|---------------------0--| 
----------------------------|------------------------| 
 
 
                                                          
 
----0--0-0--0-0-0-0-0-0-0-0-0-|--0----0---0-0--0--0--1--| 
----1--1-1--1-1-1-1-1-1-1-1-1-|--1----1---1-1--1--1--3--| 
----2--2-2--2-2-2-2-2-2-2-2-2-|--2----2---2-2--2--2--2--| 
----2--2-2--2-2-2-2-2-2-2-2-2-|--2----2---2-2--2--2--0--| 
----0--0-0--0-0-0-0-0-0-0-0-0-|--0----0---0-0--0--0-----| 
------------------------------|-------------------------| 
 
 
                                                        
----0--1--0-0-1-1-0--0------|--1----1--1-1-1--3--0----| 
----3--3--3-3-3-3-3--3--3-3-|--1----1--1-1-1--1--1----| 
----2--2--2-2-2-2-2--2--2-2-|--0----0--0-0-0--0--2----| 
----0--0--0-0-0-0-0--0--0-0-|--3----3--3-3-3--2--2----| 
----------------------------|--------------------0----| 
----------------------------|-------------------------| 
 
 
                                                                                 
----0--0-0--0-0-0-0--0---8--|--8--8--8--8--8--8--8--8--8--8--8--8--8--8--8--8--| 
----1--1-0--0-1-1-1--1---8--|--8--8--8--8--8--8--8--8--8--8--8--8--8--8--8--8--| 
----2--2-2--2-2-2-2--2---9--|--9--9--9--9--9--9--9--9--9--9--9--9--9--9--9--9--| 
----2--2-2--2-2-2-2--2---10-|--10-10-10-10-10-10-10-10-10-10-10-10-10-10-10-10-| 
----0--0-0--0-0-0-0--0------|--x--x--x--x--x--x--x--x--x--x--x--x--x--x--x--x--| 
----------------------------|--8--8--8--8--8--8--8--8--8--8--8--8--8--8--8--8--| 
 
 
                                    
--3-3-3-3-3-3-3-3-1-1-1-1-1-1-1-1-| 
--3-3-3-3-3-3-3-3-1-1-1-1-1-1-1-1-| 
--4-4-4-4-4-4-4-4-2-2-2-2-2-2-2-2-| 
--5-5-5-5-5-5-5-5-3-3-3-3-3-3-3-3-| 
--x-x-x-x-x-x-x-x-x-x-x-x-x-x-x-x-| 
--3-3-3-3-3-3-3-3-1-1-1-1-1-1-1-1-| 
 
 
                                                    
--8--8--8--8--8--8--8--8--8--8--8--8--8--8--8--8--| 
--8--8--8--8--8--8--8--8--8--8--8--8--8--8--8--8--| 
--9--9--9--9--9--9--9--9--9--9--9--9--9--9--9--9--| 
--10-10-10-10-10-10-10-10-10-10-10-10-10-10-10-10-| 
--x--x--x--x--x--x--x--x--x--x--x--x--x--x--x--x--| 
--8--8--8--8--8--8--8--8--8--8--8--8--8--8--8--8--| 
 
 
                                                                       
--3-3-3-3-3-3-3-3-1-1-1-1-1-1-1-1-|--5-5-5-5-5-5-5-5-5-5-5-5-5-5-5-5-| 
--3-3-3-3-3-3-3-3-1-1-1-1-1-1-1-1-|--5-5-5-5-5-5-5-5-5-5-5-5-5-5-5-5-| 
--4-4-4-4-4-4-4-4-2-2-2-2-2-2-2-2-|--5-5-5-5-5-5-5-5-5-5-5-5-5-5-5-5-|  2X 
--5-5-5-5-5-5-5-5-3-3-3-3-3-3-3-3-|--7-7-7-7-7-7-7-7-7-7-7-7-7-7-7-7-| 
--x-x-x-x-x-x-x-x-x-x-x-x-x-x-x-x-|--x-x-x-x-x-x-x-x-x-x-x-x-x-x-x-x-| 
--3-3-3-3-3-3-3-3-1-1-1-1-1-1-1-1-|--5-5-5-5-5-5-5-5-5-5-5-5-5-5-5-5-| 
 
 
                                                                       
 
 
 
                                    
--3-3-3-3-3-3-3-3-1-1-1-1-1-1-1-1-| 
--3-3-3-3-3-3-3-3-1-1-1-1-1-1-1-1-| 
--4-4-4-4-4-4-4-4-2-2-2-2-2-2-2-2-| 
--5-5-5-5-5-5-5-5-3-3-3-3-3-3-3-3-| 
--x-x-x-x-x-x-x-x-x-x-x-x-x-x-x-x-| 
--3-3-3-3-3-3-3-3-1-1-1-1-1-1-1-1-| 
 
 
                                                    
--8--8--8--8--8--8--8--8--8--8--8--8--8--8--8--8--| 
--8--8--8--8--8--8--8--8--8--8--8--8--8--8--8--8--| 
--9--9--9--9--9--9--9--9--9--9--9--9--9--9--9--9--| 
--10-10-10-10-10-10-10-10-10-10-10-10-10-10-10-10-| 
--x--x--x--x--x--x--x--x--x--x--x--x--x--x--x--x--| 
--8--8--8--8--8--8--8--8--8--8--8--8--8--8--8--8--| 
 
 
                                    
--3-3-3-3-3-3-3-3-1-1-1-1-1-1-1-1-| 
--3-3-3-3-3-3-3-3-1-1-1-1-1-1-1-1-| 
--4-4-4-4-4-4-4-4-2-2-2-2-2-2-2-2-| 
--5-5-5-5-5-5-5-5-3-3-3-3-3-3-3-3-| 
--x-x-x-x-x-x-x-x-x-x-x-x-x-x-x-x-| 
--3-3-3-3-3-3-3-3-1-1-1-1-1-1-1-1-| 
 
 
                                                    
--8--8--8--8--8--8--8--8--8--8--8--8--8--8--8--8--| 
--8--8--8--8--8--8--8--8--8--8--8--8--8--8--8--8--| 
--9--9--9--9--9--9--9--9--9--9--9--9--9--9--9--9--| 
--10-10-10-10-10-10-10-10-10-10-10-10-10-10-10-10-| 
--x--x--x--x--x--x--x--x--x--x--x--x--x--x--x--x--| 
--8--8--8--8--8--8--8--8--8--8--8--8--8--8--8--8--| 
 
 
                                                                       
--3-3-3-3-3-3-3-3-1-1-1-1-1-1-1-1-|--5-5-5-5-5-5-5-5-5-5-5-5-5-5-5-5-| 
--3-3-3-3-3-3-3-3-1-1-1-1-1-1-1-1-|--5-5-5-5-5-5-5-5-5-5-5-5-5-5-5-5-| 
--4-4-4-4-4-4-4-4-2-2-2-2-2-2-2-2-|--5-5-5-5-5-5-5-5-5-5-5-5-5-5-5-5-|  2X 
--5-5-5-5-5-5-5-5-3-3-3-3-3-3-3-3-|--7-7-7-7-7-7-7-7-7-7-7-7-7-7-7-7-| 
--x-x-x-x-x-x-x-x-x-x-x-x-x-x-x-x-|--x-x-x-x-x-x-x-x-x-x-x-x-x-x-x-x-| 
--3-3-3-3-3-3-3-3-1-1-1-1-1-1-1-1-|--5-5-5-5-5-5-5-5-5-5-5-5-5-5-5-5-| 
                                                                     
 
 
                                    
--3-3-3-3-3-3-3-3-1-1-1-1-1-1-1-1-| 
--3-3-3-3-3-3-3-3-1-1-1-1-1-1-1-1-| 
--4-4-4-4-4-4-4-4-2-2-2-2-2-2-2-2-| 
--5-5-5-5-5-5-5-5-3-3-3-3-3-3-3-3-| 
--x-x-x-x-x-x-x-x-x-x-x-x-x-x-x-x-| 
--3-3-3-3-3-3-3-3-1-1-1-1-1-1-1-1-| 
 
 
                                                    
 
--8--8--8--8--8--8--8--8--8--8--8--8--8--8--8--8--| 
--8--8--8--8--8--8--8--8--8--8--8--8--8--8--8--8--| 
--9--9--9--9--9--9--9--9--9--9--9--9--9--9--9--9--| 
--10-10-10-10-10-10-10-10-10-10-10-10-10-10-10-10-| 
--x--x--x--x--x--x--x--x--x--x--x--x--x--x--x--x--| 
--8--8--8--8--8--8--8--8--8--8--8--8--8--8--8--8--| 
 
 
                                    
--3-3-3-3-3-3-3-3-1-1-1-1-1-1-1-1-| 
--3-3-3-3-3-3-3-3-1-1-1-1-1-1-1-1-| 
--4-4-4-4-4-4-4-4-2-2-2-2-2-2-2-2-| 
--5-5-5-5-5-5-5-5-3-3-3-3-3-3-3-3-| 
--x-x-x-x-x-x-x-x-x-x-x-x-x-x-x-x-| 
--3-3-3-3-3-3-3-3-1-1-1-1-1-1-1-1-| 
 
 
                                                    
--8--8--8--8--8--8--8--8--8--8--8--8--8--8--8--8--| 
--8--8--8--8--8--8--8--8--8--8--8--8--8--8--8--8--| 
--9--9--9--9--9--9--9--9--9--9--9--9--9--9--9--9--| 
--10-10-10-10-10-10-10-10-10-10-10-10-10-10-10-10-| 
--x--x--x--x--x--x--x--x--x--x--x--x--x--x--x--x--| 
--8--8--8--8--8--8--8--8--8--8--8--8--8--8--8--8--| 
 
 
                                                                       
--3-3-3-3-3-3-3-3-1-1-1-1-1-1-1-1-|--5-5-5-5-5-5-5-5-5-5-5-5-5-5-5-5-| 
--3-3-3-3-3-3-3-3-1-1-1-1-1-1-1-1-|--5-5-5-5-5-5-5-5-5-5-5-5-5-5-5-5-| 
--4-4-4-4-4-4-4-4-2-2-2-2-2-2-2-2-|--5-5-5-5-5-5-5-5-5-5-5-5-5-5-5-5-|  2X 
--5-5-5-5-5-5-5-5-3-3-3-3-3-3-3-3-|--7-7-7-7-7-7-7-7-7-7-7-7-7-7-7-7-| 
--x-x-x-x-x-x-x-x-x-x-x-x-x-x-x-x-|--x-x-x-x-x-x-x-x-x-x-x-x-x-x-x-x-| 
--3-3-3-3-3-3-3-3-1-1-1-1-1-1-1-1-|--5-5-5-5-5-5-5-5-5-5-5-5-5-5-5-5-| 
 
 
                                                                       
--3-3-3-3-3-3-3-3-1-1-1-1-1-1-1-1-| 
--3-3-3-3-3-3-3-3-1-1-1-1-1-1-1-1-| 
--4-4-4-4-4-4-4-4-2-2-2-2-2-2-2-2-| 
--5-5-5-5-5-5-5-5-3-3-3-3-3-3-3-3-| 
--x-x-x-x-x-x-x-x-x-x-x-x-x-x-x-x-| 
--3-3-3-3-3-3-3-3-1-1-1-1-1-1-1-1-| 
 
 
                                                    
--8--8--8--8--8--8--8--8--8--8--8--8--8--8--8--8--| 
--8--8--8--8--8--8--8--8--8--8--8--8--8--8--8--8--| 
--9--9--9--9--9--9--9--9--9--9--9--9--9--9--9--9--| 
--10-10-10-10-10-10-10-10-10-10-10-10-10-10-10-10-| 
--x--x--x--x--x--x--x--x--x--x--x--x--x--x--x--x--| 
--8--8--8--8--8--8--8--8--8--8--8--8--8--8--8--8--| 
 
 
                                    
 
 
 
--3-3-3-3-3-3-3-3-1-1-1-1-1-1-1-1-| 
--3-3-3-3-3-3-3-3-1-1-1-1-1-1-1-1-| 
--4-4-4-4-4-4-4-4-2-2-2-2-2-2-2-2-| 
--5-5-5-5-5-5-5-5-3-3-3-3-3-3-3-3-| 
--x-x-x-x-x-x-x-x-x-x-x-x-x-x-x-x-| 
--3-3-3-3-3-3-3-3-1-1-1-1-1-1-1-1-| 
 
 
                                                    
--8--8--8--8--8--8--8--8--8--8--8--8--8--8--8--8--| 
--8--8--8--8--8--8--8--8--8--8--8--8--8--8--8--8--| 
--9--9--9--9--9--9--9--9--9--9--9--9--9--9--9--9--| 
--10-10-10-10-10-10-10-10-10-10-10-10-10-10-10-10-| 
--x--x--x--x--x--x--x--x--x--x--x--x--x--x--x--x--| 
--8--8--8--8--8--8--8--8--8--8--8--8--8--8--8--8--| 
 
 
                                                                       
--3-3-3-3-3-3-3-3-1-1-1-1-1-1-1-1-|--5-5-5-5-5-5-5-5-5-5-5-5-5-5-5-5-| 
--3-3-3-3-3-3-3-3-1-1-1-1-1-1-1-1-|--5-5-5-5-5-5-5-5-5-5-5-5-5-5-5-5-| 
--4-4-4-4-4-4-4-4-2-2-2-2-2-2-2-2-|--5-5-5-5-5-5-5-5-5-5-5-5-5-5-5-5-|  2X 
--5-5-5-5-5-5-5-5-3-3-3-3-3-3-3-3-|--7-7-7-7-7-7-7-7-7-7-7-7-7-7-7-7-| 
--x-x-x-x-x-x-x-x-x-x-x-x-x-x-x-x-|--x-x-x-x-x-x-x-x-x-x-x-x-x-x-x-x-| 
--3-3-3-3-3-3-3-3-1-1-1-1-1-1-1-1-|--5-5-5-5-5-5-5-5-5-5-5-5-5-5-5-5-| 
                                                                     
 
 
                                    
--3-3-3-3-3-3-3-3-1-1-1-1-1-1-1-1-| 
--3-3-3-3-3-3-3-3-1-1-1-1-1-1-1-1-| 
--4-4-4-4-4-4-4-4-2-2-2-2-2-2-2-2-| 
--5-5-5-5-5-5-5-5-3-3-3-3-3-3-3-3-| 
--x-x-x-x-x-x-x-x-x-x-x-x-x-x-x-x-| 
--3-3-3-3-3-3-3-3-1-1-1-1-1-1-1-1-| 
 
 
                                                    
--8--8--8--8--8--8--8--8--8--8--8--8--8--8--8--8--| 
--8--8--8--8--8--8--8--8--8--8--8--8--8--8--8--8--| 
--9--9--9--9--9--9--9--9--9--9--9--9--9--9--9--9--| 
--10-10-10-10-10-10-10-10-10-10-10-10-10-10-10-10-| 
--x--x--x--x--x--x--x--x--x--x--x--x--x--x--x--x--| 
--8--8--8--8--8--8--8--8--8--8--8--8--8--8--8--8--| 
 
 
                                    
--3-3-3-3-3-3-3-3-1-1-1-1-1-1-1-1-| 
--3-3-3-3-3-3-3-3-1-1-1-1-1-1-1-1-| 
--4-4-4-4-4-4-4-4-2-2-2-2-2-2-2-2-| 
--5-5-5-5-5-5-5-5-3-3-3-3-3-3-3-3-| 
--x-x-x-x-x-x-x-x-x-x-x-x-x-x-x-x-| 
--3-3-3-3-3-3-3-3-1-1-1-1-1-1-1-1-| 
 
 
                                                    
 
 
--8--8--8--8--8--8--8--8--8--8--8--8--8--8--8--8--| 
--8--8--8--8--8--8--8--8--8--8--8--8--8--8--8--8--| 
--9--9--9--9--9--9--9--9--9--9--9--9--9--9--9--9--| 
--10-10-10-10-10-10-10-10-10-10-10-10-10-10-10-10-| 
--x--x--x--x--x--x--x--x--x--x--x--x--x--x--x--x--| 
--8--8--8--8--8--8--8--8--8--8--8--8--8--8--8--8--| 
 
 
                                                                       
--3-3-3-3-3-3-3-3-1-1-1-1-1-1-1-1-|--5-5-5-5-5-5-5-5-5-5-5-5-5-5-5-5-| 
--3-3-3-3-3-3-3-3-1-1-1-1-1-1-1-1-|--5-5-5-5-5-5-5-5-5-5-5-5-5-5-5-5-| 
--4-4-4-4-4-4-4-4-2-2-2-2-2-2-2-2-|--5-5-5-5-5-5-5-5-5-5-5-5-5-5-5-5-|  2X 
--5-5-5-5-5-5-5-5-3-3-3-3-3-3-3-3-|--7-7-7-7-7-7-7-7-7-7-7-7-7-7-7-7-| 
--x-x-x-x-x-x-x-x-x-x-x-x-x-x-x-x-|--x-x-x-x-x-x-x-x-x-x-x-x-x-x-x-x-| 
--3-3-3-3-3-3-3-3-1-1-1-1-1-1-1-1-|--5-5-5-5-5-5-5-5-5-5-5-5-5-5-5-5-| 
                                                                   
 
                                                          
--3-3-3-3-3-3-3-3-1-1-1-1-1-1-1-1-|--8-----------------|| 
--3-3-3-3-3-3-3-3-1-1-1-1-1-1-1-1-|--8-----------------|| 
--4-4-4-4-4-4-4-4-2-2-2-2-2-2-2-2-|--9-----------------|| 
--5-5-5-5-5-5-5-5-3-3-3-3-3-3-3-3-|--10----------------|| 
--x-x-x-x-x-x-x-x-x-x-x-x-x-x-x-x-|--x-----------------|| 
--3-3-3-3-3-3-3-3-1-1-1-1-1-1-1-1-|--8-----------------|| 
 
 

	  

Request the video "Easily (ver. 2)"  -  Send "Easily (ver. 2)" Ringtone to your Cell

there isn't a video lesson for this song

request
e-chords
Search
auto scroll beats size up size down change color hide chords drawings
tab show chords e-chords YouTube Clip e-chords hide all tabs e-chords go to top tab