P.O.D.

home > P.O.D. > chords

Youth of the nation Tab

P.O.D.

Difficulty: BeginnerBeginner

tuner correct add songbook print version text version rtf version e-mail
chordsukulelecavacokeyboardtabbassdrummharmonicsflute Guitar Pro
chords

Youth of the nation

	   
Part 1 (Riff) 
e|----------------------------------------|      G|------------------------------------| 
B|----------------------------------------|      D|------------------------------------|  
G|----------------------------------------|      A|------------0-------------0---------|  
D|----------------------------------------|      E|--0-00-0-00-5---0-00-0-00-5---------| 
A|--2-2------0-0--------2-2------0-0------| 
D|--2--------5----------2--------5--------|                 Baixo ai a cima (musica toda) 
 
Move drain to be go space ... 
 
Chorus (Refrão) 
 
     (E)            (G)  (G4) 
e|----------------------------------------| 
B|----------------------------------------| 
G|----------------------------------------| 
D|--2-2-2---------5-5-5-7-7-7-7-----------| 
A|--2-2-2---------5-5-5-5-5-5-5-----------| 
D|--2-2-2---------5-5-5-5-5-5-5-----------| 
 
we are,we are Youth of the Nation. we are ... 
 
Part 2 (Riff) 
e|----------------------------------------| 
B|----------------------------------------| 
G|----------------------------------------|        Alguem canta no fundo pra finger ser as  
D|----------------------------------------|         criançinhas  
A|--2-2------0-0--------2-2------0-0------| 
D|--2--------5----------2--------5--------| 
 
SOLO 
e|----------------------------------------| 
B|--------------3-------------------------| 
G|--2--5-4---------4-2--------------------| 
D|---------5--2---------------------------| 
A|------------------------0-0--2-2--------| 
D|------------------------5----2----------| 
 
Obs enquanto o guitar faz o solo o baixista faz o Riff 
 
Chorus  
 
E vocal canta Ioouuuuuu, Ioouuuuuu, Youth of the Nation iiiiii ... até a morte 
 
_______________________________________________________ 
Contribuição: Daniel Augusto(manson_607@hotmail.com) 
	  

Request the video "Youth of the nation"  -  Send "Youth of the nation" Ringtone to your Cell

there isn't a video lesson for this song

request
Full key step upFull key step up
Half key step upHalf key step up
Half key step downHalf key step down
Full key step downFull key step down
e-chords
Search
auto scroll beats size up size down change color hide chords drawings
tab show chords e-chords YouTube Clip e-chords hide all tabs e-chords go to top tab