Pink

home > Pink > chords

Crystal Ball Tab

Pink

Difficulty: BeginnerBeginner

by l.e.o.

tuner correct add songbook print version text version rtf version e-mail
chordsukulelecavacokeyboardtabbassdrumsharmonicsflute Guitar Pro
chords

Crystal Ball

	  Intro: 
e------------------------------------------------| 
b------------------------------------------------| 
G----0-------0-------0-------0-------------------| 
D---0------0-------0-------0---------------------| 
A--2---2-3-----3-2-----2-3-----------------------| 
E-3---3-3-3-3-3-3-3-3-3-3-3-3--------------------| 

"Oh Iv'e had my chances and I've taken 'em all" 
e------------------------------------------------| 
b------------------------------------------------| 
G------------------------------------------------| x2 
D------------------------------------------------| 
A---2-2-2-2-3-3-3-3-2-2-2-2-3-3-3-3--------------| 
E--3-3-3-3-3-3-3-3-3-3-3-3-3-3-3-3---------------| 

|-------------------------------------------------| 
|-------------------------------------------------| 
|-------------------------------------------------| 
|-----0-----0---0-----0---------------------------| 
|---2---2-3---3---3-2---2-------------------------| 
|--3-3-3-3-3-3-3-3-3-3-3-3-3-3--------------------| 

"Pennys In a well" ...Million dollors in the fountain of a hotel." 
Strum these chords and add a hammer and pull off on the C chord (like it says on the tab) 
Justin does it :) It sounds awesome! 
e-3------------------0--------------------------| 
b-3------------------1----1---------------------| 
G-0------------------0----0h2p0--0--------------| 
D-0------------------2----0---------0-----------| 
A-2------------------3--3-----------------------| 
E-3---------------------------------------------| 
                  Fortune teller says..... 
e-3------------------0--------------------------| 
b-3------------------1----1---------------------| 
G-0------------------0----0h2-0-----------------| 
D-0------------------2----0---------0-----------| 
A-2------------------3--3-----------------------| 
E-3---------------------------------------------| 

"Maybe you will go to hell" 
e-----------------0-----------------------------| 
b-----------0-------------------2---------------| 
G--------0---------------------2-----0----------| 
D------2---------------------2------------2-----| 
A--------------------------0------0-----0-------| 
E--0-----------0-----0--------------------------| 

"(1) Im not scared at all....(2)Mmmm Mmmm Mmmm Mmmm Mmmm" 
e-----------------------------------------------| 
b-----------------------3-----------------------| 
G----0---0---0----0---2-----2-------------------| x2 
D---2---0---0----0---0----------0---------------| 
A--3---2---0------------------------------------| 
E---------------3---2-----2---2-----------------| 


"The cracks in the crystal, cracks in the crystal ball." 
e--------------------0---------------------------| 
b------1---------------1-------------------------| 
G--------2---2-----------2-----------------------| 
D---3------3----3--------------------------------| 
A------------------------------------------------| 
E------------------------------------------------| 

e-----------3------------3-----------3----------------| 
b------0h1----------0h1----------0h1---0--------------| 
G------0-------0----0------0----0---------------------| 
D----0-------------0-----------0-------------0-----0--| 
A----------------------------------------------2------| 
E--3--------------3-----------3------------3-----3----| 

Verses: Repeat as many times need. 
e------------------------------------------------| 
b------------------------------------------------| 
G----0-------0-------0-------0-------------------| 
D---0------0-------0-------0---------------------| 
A--2---2-3-----3-2-----2-3-----------------------| 
E-3---3-3-3-3-3-3-3-3-3-3-3-3--------------------| 

"Oh I've Felt that fire and I, I've been burned." 
e------------------------------------------------| 
b------------------------------------------------| 
G------------------------------------------------| x2 
D------------------------------------------------| 
A---2-2-2-2-3-3-3-3-2-2-2-2-3-3-3-3--------------| 
E--3-3-3-3-3-3-3-3-3-3-3-3-3-3-3-3---------------| 

"Pennys In a well" ...Million dollors in the fountain of a hotel" 
e-3------------------0--------------------------| 
b-3------------------1----1---------------------| 
G-0------------------0----0h2p0--0--------------| 
D-0------------------2----0---------0-----------| 
A-2------------------3--3-----------------------| 
E-3---------------------------------------------| 
                  Fortune teller says..... 
e-3------------------0--------------------------| 
b-3------------------1----1---------------------| 
G-0------------------0----0h2-0-----------------| 
D-0------------------2----0---------0-----------| 
A-2------------------3--3-----------------------| 
E-3---------------------------------------------| 

"Maybe you will go to hell" 
e------0----------------------------------------| 
b-----0-----2-----------------------------------| 
G----0-----2--0---------------------------------| 
D---2-----2-------------------------------------| 
A--2-----0--------------------------------------| 
E-0---------------------------------------------| 

"(1) Im not scared at all....(2)Mmmm Mmmm Mmmm Mmmm Mmmm" 
e-----------------------------------------------| 
b-----------------------3-----------------------| 
G----0---0---0----0---2---2---------------------| x2 
D---2---0---0----0---0-------0------------------| 
A--3---2---0------------------------------------| 
E---------------3---2---------------------------| 

"Of the cracks in the crystal, cracks in the crystal ball." 
e--------------------0---------------------------| 
b------1---------------1-------------------------| 
G--------2---2-----------2-----------------------| 
D---3------3----3--------------------------------| 
A------------------------------------------------| 
E------------------------------------------------| 

e-----------3------------3-----------3----------------| 
b------0h1----------0h1----------0h1---0--0h1p0-------| 
G------0-------0----0------0----0---------0h2p0-----0-| 
D----0-------------0-----------0----------------0h2---| Em           D        C        D 
e------------------------------------------------| 
b--------0----------3------1--------3------------| 
G------0---------0-------0--------0--------------| 
D----2---------0-------2--------0----------------| 
A------------5--------3--------5-----------------| 
E-0----------------------------------------------| 
   Em          C        C         C 
e------------------------------------------------| 
b--------0----------3------3------3--------------| 
G------0---------0-------0---0----0--------------| 
D----2---------0-------2----------2--------------| 
A------------5--------3-----------3--------------| 
E-0----------------------------------------------| 

"Pennys in a well..." 
e-3-----0-------3------0-------------------------| 
b-3-----1-------3------1-------------------------| 
G-0-----0-------0------0h2p0-0-------------------| x2 
D-0-----2-------0------2-------0-----------------| 
A-2-----3-------2------3-------------------------| 
E-3-------------3--------------------------------| 

"(1) Im not scared at all....(2)Mmmm Mmmm Mmmm Mmmm Mmmm" 
e-----------------------------------------------| 
b-----------------------3-----------------------| 
G----0---0---0----0---2---2---------------------| x3 
D---2---0---0----0---0-------0------------------| 
A--3---2---0------------------------------------| 
E---------------3---2---------------------------| 

"Of the cracks in the crystal, cracks in the crystal ball." 
e--------------------0---------------------------| 
b------1---------------1-------------------------| 
G--------2---2-----------2-----------------------| 
D---3------3----3--------------------------------| 
A------------------------------------------------| 
E------------------------------------------------| 

e-----------3------------3-----------3-------------------3-| 
b------0h1----------0h1----------0h1---0--0h1-0h1p0-0h1--3-| 
G------0-------0----0------0----0------------------------0-| 
D----0-------------0-----------0----------0h2-0h2p0-0h2--0-| 
A--------------------------------------------------------2-| 
E--3--------------3-----------3--------------------------3-| 
	  

Request the video "Crystal Ball"  -  Send "Crystal Ball" Ringtone to your Cell

there isn't a video lesson for this song

request
Full key step upFull key step up
Half key step upHalf key step up
Half key step downHalf key step down
Full key step downFull key step down
Search
auto scroll beats size up size down change color hide chords drawings
tab show chords e-chords YouTube Clip e-chords hide all tabs e-chords go to top tab