Pink Floyd

home > Pink Floyd > chords

Wish You Were Here (ver. 2) Tab

Pink Floyd

Difficulty: BeginnerBeginner

tuner correct add songbook print version text version rtf version e-mail
chordsukulelecavacokeyboardtabbassdrumsharmonicsflute Guitar Pro
chords

Wish You Were Here (ver. 2)

	   
INTRO: 
 
  	{G}				{G} 
e|-|-----------33||---------33-||-----------33||---------33-||-----------33|| 
B|-|-----------33||---------33-||-----------33||---------33-||-----------33|| 
G|-|-----------00||--2p0----00-||-----------00||--2p0----00-||-----------00|| 
D|-|-------0h2-22||-----2p0-00-||-------0h2-22||-----2p0-00-||-------0h2-22|| 
A|-|---0h2-------||------------||---0h2-------||------------||---0h2-------|| 
E|-|-3-----------||------------||-3-----------||------------||-3-----------|| 
 
	{A}				{G} 
e|-|----------33-----||-----------33----|| 
B|-|----------33-----||-----------33----|| 
G|-|----------00-----||-----------00----||  (Segue a Batida em {G}) 
D|-|--2p0-----22-----||-------0h2-22----|| 
A|-|-----2p0---------||---0h2--------2/-|| 
E|-|-----------------||-3--------------3|| 
 
h = Hammer On 
p = Pull Of 
~ = Tremolo 
^ = Bend 
/  = Slide 
 
SOLO DA INTRO (continua em {G}): 
 
Sugestão: Escute a música várias vezes. Principalmente nesta parte. 
 
e|-|-----------------------||--3/5p3---------------||------------------------| 
B|-|---3~-5-3~-------------||--3/5p3---------------||-----33~-5^p3--------3/5| 
G|-|2h4---------4p2p0------||-------2h4/2-0-2h4p2/0||--2h4--------4^p2~-4----| 
D|-|-----------------0----0||----------------------||------------------------| 
A|-|-------------------0h2-||----------------------||------------------------| 
E|-|-----------------------||----------------------||------------------------| 
 
e|-|---------------3| 
B|-|---------------3| 
G|-|--2h4p2~-4p2p0-0| (Continua Batida em G e começa a Música) 
D|-|---------------0| 
A|-|---------------2| 
E|-|---------------3| 
 
Verso: 
 
C                         D/F# 
So, so you think you can tell 
             Am/E                  G                         D/F# 
Heaven from hell, Blue skies from pain. Can you tell a green field 
                  C                    Am                         G 
From a cold steel rail, A smile from a veil? Do you think you can tell? 
                    C                       D/F#                  Am/E 
Did they get you to trade, Your heroes for ghosts, Hot ashes for trees, 
                G                           D/F#              C 
Hot air for a cool breeze, Cold comfort for change? Did you exchange 
                      Am                          G 
A walk on part in the war, For a lead role in a cage? 
 
Refrão: 
 
C                               D/F# 
How I wish, how I wish you were here, 
           Am                                  G                  D/F# 
We're just two lost souls swimming in a fish bowl, Year after year, 
                                C                                    Am 
Running over the same old ground,  What have we found?  The same old fears, 
               G 
Wish you were here. 
 
* VOLTA PRO RIFF INICIAL 
 
 
 
_______________________________________________________ 
Contribuição: Aldemar Buarque de Paiva Neto(aldemar_paiva@hotmail.com) 

	  

Request the video "Wish You Were Here (ver. 2)"  -  Send "Wish You Were Here (ver. 2)" Ringtone to your Cell

there isn't a video lesson for this song

request
Full key step upFull key step up
Half key step upHalf key step up
Half key step downHalf key step down
Full key step downFull key step down
Search
auto scroll beats size up size down change color hide chords drawings
tab show chords e-chords YouTube Clip e-chords hide all tabs e-chords go to top tab