Pink Floyd

home > Pink Floyd > chords

Wish you were here(intro) Tab

Pink Floyd

Difficulty: BeginnerBeginner

by marcelocarvalho

tuner correct add songbook print version text version rtf version e-mail
chordsukulelecavacokeyboardtabbassdrumsharmonicsflute Guitar Pro
chords

Wish you were here(intro)

	  e:|---------------333--------333------| 
B:|---------------333--------333------| 
G:|---------------000---0----000------|             2x 
D:|--------0--2---222-----2--222------| 
A:|----0/2-----------------0----------| 
E:|--3--------------------------------| 
 
 
 
 
e:|---------------333------------------333------| 
B:|---------------333------------------333------| 
G:|---------------000------------------000------|  2x 
D:|--------0--2---222-------2/0--------222------| 
A:|----0/2----------------------2/0--0----------| 
E:|--3------------------------------------------| 
 

	  

Request the video "Wish you were here(intro)"  -  Send "Wish you were here(intro)" Ringtone to your Cell

there isn't a video lesson for this song

request
Search
auto scroll beats size up size down change color hide chords drawings
tab show chords e-chords YouTube Clip e-chords hide all tabs e-chords go to top tab