Phantom Planet

home > Phantom Pl... > chords

California (ver. 2) Tab

Phantom Planet

Difficulty: BeginnerBeginner

tuner correct add songbook print version text version rtf version e-mail
chordsukulelecavacokeyboardtabbassdrumsharmonicsflute Guitar Pro
chords

California (ver. 2)

	   
We've been on the run  
Driving in the sun  
Looking out for N1  
California here we come  
Right back where we started from  
  
Hustlers grab your guns  
Your shadow weighs a ton  
Driving down the 101  
California here we come  
Right back where we started from  
  
California!  
Here we come!  
  
On the stereo  
Listen as we go  
Nothing's gonna stop me now  
California here we come  
Right back where we started from  
Pedal to the floor  
Thinkin' of the roar  
Gotta get us to the show  
California here we come  
Right back where we started from  
  
California!  
Here we come!   
   
  
  
Intro and vers  
  
         C#m    A       E    
E:  ------4--------0-------0-------------------------------  
A:  ------4--------0-------2-------------------------------  
D:  ------6--------2-------2-------------------------------  
G:  ------6--------2-------1-------------------------------  
B:  ------5--------2-------0-------------------------------  
E:  ------4--------0-------0-------------------------------  
                     
  
Chorus  
  
                A         C#       B   
E:  ----0-------0---------4--------2------------------------  
A:  ----2-------0---------4--------2------------------------  
D:  ----2-------2---------6--------4------------------------  
G:  ----1-------2---------6--------4------------------------  
B:  ----0-------2---------6--------4------------------------  
E:  ----0-------0---------4--------2------------------------  
  
  
  
  
Solo  ( Gitar 2 Plays the Intro)  
  
E:  ----------------------------------------------------  
A:  ----------------------------------------------------  
D:  ----------------------------------------------------  
G:  ---0--3--3---------0- 3---3-----0--3-----3-------3--  
B:  ------- 1-- 1-----------1---1---------1----1--3-----  
E:  ----------------------------------------------------  
  
  
  
E:  ----------------------------------------------------  
A:  ----------------------------------------------------  
D:  -------3-3---1-1--1------------3-3--1-1---1---------  
G:  ---0-----------------0------0-----------------0-----  
B:  ----------------------------------------------------  
E:  --------------------------------------------------- 
 
_______________________________________ 
Contribuição: (abw_@hotmail.com) 

	  

Request the video "California (ver. 2)"  -  Send "California (ver. 2)" Ringtone to your Cell

there isn't a video lesson for this song

request
Full key step upFull key step up
Half key step upHalf key step up
Half key step downHalf key step down
Full key step downFull key step down
e-chords
Search
auto scroll beats size up size down change color hide chords drawings
tab show chords e-chords YouTube Clip e-chords hide all tabs e-chords go to top tab