Peterpan

home > Peterpan > chords

Semua tentang kita Tab

Peterpan

Difficulty: BeginnerBeginner

by kacuak

tuner correct add songbook print version text version rtf version e-mail
chordsukulelecavacokeyboardtabbassdrumsharmonicsflute Guitar Pro
chords

Semua tentang kita

	   
1st  guitar: fingerpicking style 
 C              G                 Am7                                      
e------------------------------------------------ 
B----------------------------------------1------- 
G--------------------------------------0---0---0- 
D---2---3p2---0------0-----0---0-----2-------2--- 
A-3---3-----3------2---2h3---3-----0------------- 
E----------------3------------------------------- 
  
 Em             F                C 
e------------------------------------------------ 
B-------0----------------1------------1---------- 
G-----0---0---0--------2---2---2------0---0------ 
D---2-------2-------3--------3------2---2---2---- 
A---------------------------------3-----------3-- 
E-0--------------1------------------------------- 
 
 Am7          G 
e----------------------------------1------------- 
B-------1-------------1------3-------3----------- 
G-----0---0-------------0------0-------0--------- 
D---2-------2------0------0------0---------------  2x 
A-0--------------2------------------------------- 
E--------------3--------------------------------- 
 
 
After first time: 
2nd guitar: 
 
 
e----12-13-12-10-----8-10-8-7------------------ 
B--------------------------------/10-12-10----- 
G-12----12-12-12---9---9--9-7--------------12-- 
D--------------------------------/10----------- 
A---------------------------------------------- 
E---------------------------------------------- 
 
 
e----10-12-10--------- 
B-13----------13-12~-- 
G--------------------- 
D--------------------- 
A--------------------- 
E--------------------- 
 
+<Chorus> fingerpicking style 
 
C G Am7 Em F C Am7 G 
 
 almost the same as intro riff of 2nd guitar (2x) 
 
 strum the chords above and use the end of the 1 
st guitars ?G-figure? 
 
 
+<Chorus> fingerpicking style 
 
 
C G Am7 Em F C Am7 G 
 
 
 
 
1st  guitar: fingerpicking style 
 C              G                 Am7                                      
e------------------------------------------------ 
B----------------------------------------1------- 
G--------------------------------------0---0---0- 
D---2---3p2---0------0-----0---0-----2-------2--- 
A-3---3-----3------2---2h3---3-----0------------- 
E----------------3------------------------------- 
  
 Em             F                C 
e------------------------------------------------ 
B-------0----------------1------------1---------- 
G-----0---0---0--------2---2---2------0---0------ 
D---2-------2-------3--------3------2---2---2---- 
A---------------------------------3-----------3-- 
E-0--------------1------------------------------- 
 
 Am7          G 
e-------------------3- 
B-------1----------3-- 
G-----0---0-------0--- 
D---2-------2----0---- 
A-0-------------2----- 
E--------------3------ 
 
-end of Tab 

	  

Request the video "Semua tentang kita"  -  Send "Semua tentang kita" Ringtone to your Cell

there isn't a video lesson for this song

request
Full key step upFull key step up
Half key step upHalf key step up
Half key step downHalf key step down
Full key step downFull key step down
Search
auto scroll beats size up size down change color hide chords drawings
tab show chords e-chords YouTube Clip e-chords hide all tabs e-chords go to top tab