Pearl Jam

home > Pearl Jam > chords

Jeremy(ver.2) Tab

Pearl Jam

Difficulty: AdvancedAdvanced

by Mavi2

tuner correct add songbook print version text version rtf version e-mail
chordsukulelecavacokeyboardtabbassdrumsharmonicsflute Guitar Pro
chords

Jeremy(ver.2)

	  Jeremy 

*=harmônico 

Introdução 
------------------------------------------------------------------|  
------------------5*------------7*-------------------5*-----------|  
----------------5*----------------7*---------------5*-------------|  
----------7---5------------7---5--------------7---5---------------|  
--0-5h7-0---0------0—5h7-0---0--------0-5h7-0---0-----------------|  
------------------------------------------------------------------|  

------------------------------------------------------------------|  
-------------------7*---------------------------------------------|  
----------------7*------------------------------------------------|  
----------7---5------7*-------------------------------------------|  
--0-5h7-0---0-----------------------------------------------------| 
------------------------------------------------------------------|  
  

Riff 1                             Riff 2 
--------------------------------| --------------------------------| 
--------------------------------| --------------------------------| 
--------------------------------| --9---7---7---7-----------------| 
---------7---5------7------5----| --7---5---4---5-----------------| 
--0-5h7-0---0--0-5h7--0-5h7-----| --------------------------------| 
--------------------------------| --------------------------------| 
Riff 3 
----------------------------------| 
---------5---3----5---3-----------| 
---------6---4--------------------| 
---------7---5--------------------| 
-0—5h7-0--------------------------| 
----------------------------------| 
Riff 1+Riff 3  

At home, drawing pictures of  
Mountain tops with him on top   
Lemin yellow sun, arms raised in a V   
And the dead lay in pools of maroon below 
Riff 1 + Riff 2  
Daddy didn't give attention                                       Oh, to the fact that mommy didn't care                                                   
King Jeremy the wicked...oh, ruled his world 
Riff 4 
------------------------------------------------------------------|  
------------------------------------------------------------------|  
-----12—-10-10---10---10---7--9-----------------------------------|  
-----12--10-10---10---10---7--9-----------------------------------|  
-----10--8--8----8----8----5—-7-----------------------------------|  
------------------------------------------------------------------|  

Riff4 
  F       G          A 
Jeremy spoke in the class………………today 
e|------------12------------------12---------------------  
B|-10—12h14--10--12--10—10--12h14---12--10--------------- 

Riff4 
  F       G          A 
Jeremy spoke in the class………………today 
e|------------12------------------12---------------------  
B|-10—12h14--10--12--10—10--12h14---12--10--------------- 

Riff1+Riff3 
Clearly I remember 
Picking on the boy 
Seemed a harmless little fuck 
Oh, but we unleashed a lion 
Gnashed his teeth 
And bit the recess lady's breast 
How could I forget? 
And he hit me with a surprise left 
My jaw left hurting 
Oh, dropped wide open 
Just like the day 
Oh, like the day I heard 

Riff1 + Riff2 
Daddy didn't give affection, no 
And the boy was something 
That mommy wouldn't wear 
King Jeremy the wicked 
Oh, ruled his world 
Riff4 
  F       G          A 
Jeremy spoke in the class………………today 
e|------------12------------------12---------------------  
B|-10—12h14--10--12--10—10--12h14---12--10--------------- 
Riff4 
  F       G          A 
Jeremy spoke in the class………………today 
e|------------12------------------12---------------------  
B|-10—12h14--10--12--10—10--12h14---12--10--------------- 
Riff4 
  F       G          A 
Jeremy spoke in the class………………today 
e|------------12------------------12---------------------  
B|-10—12h14--10--12--10—10--12h14---12--10--------------- 
Riff 1 qtas vezes for necessário 
Woo...13x  
    
Try to forget this...try to forget this  
Try to erase this...try to erase this   
  
F       G       A  
from the blackboard 
 Riff4 
  F       G          A 
Jeremy spoke in the class………………today 
e|------------12------------------12---------------------  
B|-10—12h14--10--12--10—10--12h14---12--10--------------- 
Riff4(2x) 
Jeremy spoke in, spoke in (2x) 
Riff4 
 F       G          A 
Jeremy spoke in the class………………today 
e|------------12------------------12---------------------  
B|-10—12h14--10--12--10—10--12h14---12--10--------------- 

Continua com o riff 1 até o final 
	  

Request the video "Jeremy(ver.2)"  -  Send "Jeremy(ver.2)" Ringtone to your Cell

there isn't a video lesson for this song

request
Full key step upFull key step up
Half key step upHalf key step up
Half key step downHalf key step down
Full key step downFull key step down
e-chords
Search
auto scroll beats size up size down change color hide chords drawings
tab show chords e-chords YouTube Clip e-chords hide all tabs e-chords go to top tab