Pearl Jam

home > Pearl Jam > chords

Come back (solo) Tab

Pearl Jam

Difficulty: IntermediateIntermediate

by europeu

tuner correct add songbook print version text version rtf version e-mail
chordsukulelecavacokeyboardtabbassdrumsharmonicsflute Guitar Pro
chords

Come back (solo)

	  Legend: 
h = Hammer on 
p = Pulloff 
~ = Vibrato 
/ = Slide 
 
 
There is some parts on the solo when there is a "repeat" effect, 
so listen carefully.. 
 
 
Solo: Part I 
 
3:37 
e|-----------------------------------------| 
B|--10h11h13-----13p11-----10~-----13------| 
G|-------------------------------------10~-| 
D|-----------------------------------------| 
A|-----------------------------------------| 
E|-----------------------------------------| 
 
3:48    
e|-----------------------------------------| 
B|--13p11-11-15~----13p11-11-13~-----------| 
G|-----------------------------------------| 
D|-----------------------------------------| 
A|-----------------------------------------| 
E|-----------------------------------------| 
 
3:58 
e|-----------------------------------------| 
B|--10h11p10-12-10-------------------------| 
G|-----------------10----------12-12-12~---| 
D|-----------------------------------------| 
A|-----------------------------------------| 
E|-----------------------------------------| 
 
4:06 
e|-----------------------------------------| 
B|--13p10----15p10----13p11-10-11~---------| 
G|-----------------------------------------| 
D|-----------------------------------------| 
A|-----------------------------------------| 
E|-----------------------------------------| 
 
4:15 
e|-----------------------------------------| 
B|--10h12p10-------------------------------| 
G|-------------9/10-12-14-15~----13/14~----| 
D|-----------------------------------------| 
A|-----------------------------------------| 
E|-----------------------------------------| 
 

	  

Request the video "Come back (solo)"  -  Send "Come back (solo)" Ringtone to your Cell

there isn't a video lesson for this song

request
Search
auto scroll beats size up size down change color hide chords drawings
tab show chords e-chords YouTube Clip e-chords hide all tabs e-chords go to top tab