Paul McCartney

home > Paul McCar... > chords

Band on the run - introdução Tab

Paul McCartney

Difficulty: AdvancedAdvanced

by CDF da guitarra

tuner correct add songbook print version text version rtf version e-mail
chordsukulelecavacokeyboardtabbassdrumsharmonicsflute Guitar Pro
chords

Band on the run - introdução

	      
 
Artista:  Paul McCartney 
Música :  Band on the Run  
                         varias vezes                varias vezes            
e|-----------------------|----------|-15-14/-10-12~~-|----------| 
b|-12--10/--12--10/--7~~-|-9/(12)-~-|-12-12/-10-12~~-|-8/(10)-~-| 
G|-09--09/--09--09/--7~~-|----------|----------------|----------| 
D|-----------------------|----------|----------------|----------| 
A|-----------------------|----------|----------------|----------| 
E|-----------------------|----------|----------------|----------| 
 
e|-10/12-10/-----------------|----------|-15-14/--10-12~~-|-----------| 
b|-10/12-10/--10/12-10/--7~~-|-9/(12)-~-|-12-12/--10-12~~-|-8//(10)-~-| 
G|------------09/11-09/--7~~-|----------|-----------------|-----------| 
D|---------------------------|----------|-----------------|-----------| 
A|---------------------------|----------|-----------------|-----------| 
E|---------------------------|----------|-----------------|-----------| 
          Duas vezes 
 
e|-15-14-12-12/10--10/--12/--15~~-|----15/---15/--| 
b|-12-12-12-12/10--10/--12/--15~~-|---15----15----| 
G|--------------------------------|--14----14-----| 
D|--------------------------------|---------------| 
A|--------------------------------|---------------| 
E|--------------------------------|---------------| 
 

	  

Request the video "Band on the run - introdução"  -  Send "Band on the run - introdução" Ringtone to your Cell

there isn't a video lesson for this song

request
Search
auto scroll beats size up size down change color hide chords drawings
tab show chords e-chords YouTube Clip e-chords hide all tabs e-chords go to top tab