Parokya ni Edgar

home > Parokya ni... > chords

Gitara Tab

Parokya ni Edgar

Difficulty: BeginnerBeginner

by europeu

tuner correct add songbook print version text version rtf version e-mail
chordsukulelecavacokeyboardtabbassdrumsharmonicsflute Guitar Pro
chords

Gitara

	  {Standard Tuning} EBGDAe 
  
 {Intro} 
         Guitar 1 - G-Em/C-Cadd9-Dsus-D-D9-D 
                    G-Em/C-Cadd9-Dsus-D-D9-D... 
	 
 e|-----------------------------------------------------------| 
 B|----3-----x---3----3---x------3-----x---3----3---x---------| 
 G|----2p0---x---2p0--2---x------2p0---x---2p0--2---x---------| 
 D|----------x------------x------------x------------x---------| 
 A|----------x------------x---0--2-----x---2--------x---------| 
 E|----3---------3--------------------------------------------| 
 
 e|--------------------------2h3--2-----0-----2---------------| 
 B|-----3----x---3----3--x---3----3--x--3-----3---------------| 
 G|-----2p0--x---2p0--2--x-----------x----(2)-----------------| 2x all... 
 D|----------x-----------x---0-------x--0-----0---------------| 
 A|--0--3----x---3-------x-----------x------------------------| 
 E|-----------------------------------------------------------| 
  
         Guitar 2 - riff 
 
 e|--------------------------5/7-5-7-8-///15~------------------------| 
 B|------------------8/10-8------------------------------------------| 
 G|----5/7-/-9-9/11--------------------------------------------------| 
 D|--------------------------------------------9h12-7h9p7------------| 
 A|------------------------------------------------------------------| 
 E|------------------------------------------------------------------| 
 
 e|-------------------------------5/7-5-7-8-/12-10-7-7h8-5-----------| 
 B|------------------8/10-8-10-8---------------------------8~--------| 
 G|----5/7-/-9-9/11--------------------------------------------------| 
 D|------------------------------------------------------------------| 
 A|------------------------------------------------------------------| 
 E|------------------------------------------------------------------| 
 
  
 {Verse} 
     G-Em/C-Cadd9-Dsus-D-D9-D 
     G-Em/C-Cadd9-Dsus-D-D9-D... 
 
 e|-----------------------------------------------------------| 
 B|----3-----x---3----3---x------3-----x---3----3---x---------| 
 G|----2p0---x---2p0--2---x------2p0---x---2p0--2---x---------| 
 D|----------x------------x------------x------------x---------| 
 A|----------x------------x---0--2-----x---2--------x---------| 
 E|----3---------3--------------------------------------------| 
      Bakit pa kailangang magbihis? 
 
 e|--------------------------2h3--2-----0-----2---------------| 
 B|-----3----x---3----3--x---3----3--x--3-----3---------------| 
 G|-----2p0--x---2p0--2--x-----------x----(2)-----------------| 
 D|----------x-----------x---0-------x--0-----0---------------| 
 A|--0--3----x---3-------x-----------x------------------------| 
 E|-----------------------------------------------------------| 
      Sayang din naman ang porma, 
 
 e|-----------------------------------------------------------| 
 B|----3-----x---3----3---x------3-----x---3----3---x---------| 
 G|----2p0---x---2p0--2---x------2p0---x---2p0--2---x---------| 
 D|----------x------------x------------x------------x---------| 
 A|----------x------------x---0--2-----x---2--------x---------| 
 E|----3---------3--------------------------------------------| 
      Lagi lang namang may sisingit 
 
 e|--------------------------2h3--2-----0-----2---------------| 
 B|-----3----x---3----3--x---3----3--x--3-----3---------------| 
 G|-----2p0--x---2p0--2--x-----------x----(2)-----------------|  
 D|----------x-----------x---0-------x--0-----0---------------| 
 A|--0--3----x---3-------x-----------x------------------------| 
 E|-----------------------------------------------------------| 
      Sa tuwing tayo'y magkasama 
 
 
 {Verse 2} 
     repeat verse 1 plucking - G-Em/C-Cadd9-Dsus-D-D9-D 
                               G-Em/C-Cadd9-Dsus-D-D9-D... 
 
 Bakit pa kailangan ng rosas 
 Kung marami namang magaalay sayo 
 Uupo na lang at await 
 Maghihintay ng pagkakataon 
 
 {Refrain} 
 
   Am7                     D- Dsus 
 e|------------------0------2--2-----2h3--2----------| 
 B|---1---x---1------1--x---3--3--x--3----3---x------| 
 G|---0---x---0---------x---------x-----------x------| 
 D|-------x------(2)----x---0-----x--0--------x------| 
 A|---0---x---0---------x---------x-----------x------| 
 E|--------------------------------------------------| 
   Hahayaan na lang silang 
 
         G            D/F#   Em  
 e|---3-----3---------3---------------0---------0------------| 
 B|---3-----3---------3--x--0------------0-------------------| 
 G|----------------------x--0-----0---------0----------------| 
 D|------0---------------x------2----------------------------| 
 A|------------0---------x-----------------------------------| 
 E|---3------------3--------0--------------------------------| 
   magkandarapa na manligaw sayo 
 
   Am7         D- Dsus 
 e|------------------0------2--2-----2h3--2----------| 
 B|---1---x---1------1--x---3--3--x--3----3---x------| 
 G|---0---x---0---------x---------x-----------x------| 
 D|-------x------(2)----x---0-----x--0--------x------| 
 A|---0---x---0---------x---------x-----------x------| 
 E|--------------------------------------------------| 
   Idadaan na lang kita sa  
 
     G     D/F#  Em  
 e|---3-----3---------3---------------0---------0------------| 
 B|---3-----3---------3--x--0------------0-------------------| 
 G|----------------------x--0-----0---------0----------------| 
 D|------0---------------x------2----------------------------| 
 A|------------0---------x-----------------------------------| 
 E|---3------------3--------0--------------------------------|  
   awiting kong ito 
   
   Am7             D       
 e|------------------0------2--2-----2h3--2----------| 
 B|---1---x---1------1--x---3--3--x--3----3---x------| 
 G|---0---x---0---------x---------x-----------x------| 
 D|-------x------(2)----x---0-----x--0--------x------| 
 A|---0---x---0---------x---------x-----------x------| 
 E|--------------------------------------------------| 
  
     G     D/F#  Em  
 e|---3-----3---------3---------------0---------0------------| 
 B|---3-----3---------3--x--0------------0-------------------| 
 G|----------------------x--0-----0---------0----------------| 
 D|------0---------------x------2----------------------------| 
 A|------------0---------x-----------------------------------| 
 E|---3------------3--------0--------------------------------|  
   Sabay ang tugtog ng gitara 
   
  Am7        D      
 e|---3-----3---------3--------------------------------------| 
 B|---3-----3---------3--------------------------------------| 
 G|----------------------------------------------------------| 
 D|------0---------------------------------------------------| 
 A|------------0---------------------------------------------| 
 E|---3------------3-----------------------------------------| 
   Idadaan nalang sa gitara 
 
  --------or mas maganda yta ?to sa refrain (same chords as above)---------- 
 
 e|----------------------2--2h3-2-----2--3-----2--3--------0-------| 
 B|--1--x---1---1-------3---3---3-----3--3----3---3--0-------0-----| 
 G|--0--x---0---0------2---------------------2----2--0---0-----0---| 
 D|-----x-2---2---2---0---------------------0-----0-----2----------| 
 A|--0--x---0---0--------------------------------------------------| 
 E|--------------------------------------3-----------0-------------| 
 
 e|----3-----2-----0-----2-----------------| 
 B|---3---3-----3-----3--------------------| 
 G|--2-------3-----3-----3-----------------| 
 D|-0--------0-----0-----0-----------------| 
 A|----------------------------------------| 
 E|----------------------------------------| 
  
 {Interlude} 
         Guitar 1 - G-Em/C-Cadd9-Dsus-D-D9-D 
                    G-Em/C-Cadd9-Dsus-D-D9-D... 
	 
 e|-----------------------------------------------------------| 
 B|----3-----x---3----3---x------3-----x---3----3---x---------| 
 G|----2p0---x---2p0--2---x------2p0---x---2p0--2---x---------| 
 D|----------x------------x------------x------------x---------| 
 A|----------x------------x---0--2-----x---2--------x---------| 
 E|----3---------3--------------------------------------------| 
 
 e|--------------------------2h3--2-----0-----2---------------| 
 B|-----3----x---3----3--x---3----3--x--3-----3---------------| 
 G|-----2p0--x---2p0--2--x-----------x----(2)-----------------| 2x all... 
 D|----------x-----------x---0-------x--0-----0---------------| 
 A|--0--3----x---3-------x-----------x------------------------| 
 E|-----------------------------------------------------------| 
  
         Guitar 2 - riff 
 
 e|--------------------------5/7-5-7-8-///15~------------------------| 
 B|------------------8/10-8------------------------------------------| 
 G|----5/7-/-9-9/11--------------------------------------------------| 
 D|--------------------------------------------9h12-7h9p7------------| 
 A|------------------------------------------------------------------| 
 E|------------------------------------------------------------------| 
 
 e|-------------------------------5/7-5-7-8-/12-10-7-7h8-5-----------| 
 B|------------------8/10-8-10-8---------------------------8~--------| 
 G|----5/7-/-9-9/11--------------------------------------------------| 
 D|------------------------------------------------------------------| 
 A|------------------------------------------------------------------| 
 E|------------------------------------------------------------------| 
 
 
 
 {Verse 3} 
     Repeat verse 1 plucking - G-Em/C-Cadd9-Dsus-D-D9-D 
                               G-Em/C-Cadd9-Dsus-D-D9-D... 
 
 Mapapagod lang sa kakatingin 
 Kung marami namang nakaharang 
 Aawit nalang at magpaparinig  
 ng lahat ng aking nadarama 
 
 
 {Refrain 2} do the tab of ref. 
 
  Am7                     D- Dsus 
 Pagbibigyan na lang silang	 
        G            D/F#   Em  
 magkandarapa na manligaw sayo 
  Am7         D- Dsus 
 Idadaan na lang kita sa  
    G     D/F#  Em  
 awiting kong ito 
   
  Am7             D     G-D/F#-Em            
 Sabay ang tugtog ng gitara 
  Am7        D      
 Idadaan nalang sa gitara 
 
 
 {Adlib/Solo} 
     Repeat verse 1 plucking - G-Em/C-Cadd9-Dsus-D-D9-D 
                               G-Em/C-Cadd9-Dsus-D-D9-D... 
 
 e|-------------------------------------12-10-----------------------------| 
 B|--------7-8-7---------7-8-10-10/12---------12-12/13-12-10-10/12-10-----| 
 G|----7-9-------7---7-9--------------------------------------------------| 
 D|-----------------------------------------------------------------------| 
 A|-----------------------------------------------------------------------| 
 E|-----------------------------------------------------------------------| 
 
 e|----10-10-7-8-8/10-12-10-7---7-8-7------------------7-8-10-7-10/12-----| 
 B|-----------------------------------8-8/10-8--7-8-10--------------------| 
 G|-----------------------------------------------------------------------| 
 D|-----------------------------------------------------------------------| 
 A|-----------------------------------------------------------------------| 
 E|-----------------------------------------------------------------------| 
 
 
 {Refrain 2} 
    Am7                     D- Dsus 
 e|------------------0------2--2-----2h3--2----------| 
 B|---1---x---1------1--x---3--3--x--3----3---x------| 
 G|---0---x---0---------x---------x-----------x------| 
 D|-------x------(2)----x---0-----x--0--------x------| 
 A|---0---x---0---------x---------x-----------x------| 
 E|--------------------------------------------------| 
   Pagbibigyan na lang silang	 
  
         G            D/F#   Em  
 e|---3-----3---------3---------------0---------0------------| 
 B|---3-----3---------3--x--0------------0-------------------| 
 G|----------------------x--0-----0---------0----------------| 
 D|------0---------------x------2----------------------------| 
 A|------------0---------x-----------------------------------| 
 E|---3------------3--------0--------------------------------| 
   magkandarapa na manligaw sayo 
 
   Am7         D- Dsus 
 e|------------------0------2--2-----2h3--2----------| 
 B|---1---x---1------1--x---3--3--x--3----3---x------| 
 G|---0---x---0---------x---------x-----------x------| 
 D|-------x------(2)----x---0-----x--0--------x------| 
 A|---0---x---0---------x---------x-----------x------| 
 E|--------------------------------------------------| 
   Idadaan na lang kita sa  
 
     G     D/F#  Em  
 e|---3-----3---------3---------------0---------0------------| 
 B|---3-----3---------3--x--0------------0-------------------| 
 G|----------------------x--0-----0---------0----------------| 
 D|------0---------------x------2----------------------------| 
 A|------------0---------x-----------------------------------| 
 E|---3------------3--------0--------------------------------|  
   awiting kong ito 
   
   Am7             D       
 e|------------------0------2--2-----2h3--2----------| 
 B|---1---x---1------1--x---3--3--x--3----3---x------| 
 G|---0---x---0---------x---------x-----------x------| 
 D|-------x------(2)----x---0-----x--0--------x------| 
 A|---0---x---0---------x---------x-----------x------| 
 E|--------------------------------------------------| 
   Sabay ang tugtog ng... 
 
   G-D/F#-Em 
 e|---3-----3---------3---------------0---------| 
 B|---3-----3---------3--x----------0-----------| 
 G|----------------------x--------0-------------| 
 D|------0---------------x------2---------------| 
 A|------------0---------x----2-----------------| 
 E|---3------------3--------0-------------------| 
   gitara.. ooohhh... 
 
 Am7-D-Dsus-D 
 e|----------0-----0------------2h3p2------------------------| 
 B|--------1---1----------------------3----------------------| 
 G|------0-------0------------2---------2--------------------| 
 D|----2--------------------0--------------------------------| 
 A|--0-------------------------------------------------------| 
 E|----------------------------------------------------------| 
    idadaan nlng...... 
 
 {Coda part Plucking} 
 
 e|------------------------------------------------------| 
 B|--12--------12---------10------10--------9------------| 
 G|---------11----11------------9----9-------------------| 
 D|------12------------------11--------------------------| 
 A|--10-------------------9-----------------9------------| 
 E|------------------------------------------------------|  
 
 e|------------------------------5h7/8-7-5-5h7p5p0-------| 
 B|--7h9--9/10--9--7--9p7----5---------------------------| 
 G|------------------------------------------------------| 
 D|------------------------------------------------------| 
 A|--------------------------0---------------------------| 
 E|------------------------------------------------------| 
 
 e|-------------------------------------------------------| 
 B|------5---(and adlib nlng---------------------+12------| 
 G|----5-------dun sa mga pull-------------------+12------| 
 D|--0--------simple lng un..--------------------+12------| 
 A|-----------pataas ung pulls..)----------------+12------| 
 E|-------------------------------------------------------| 
   
 {Outro} - Repeat intro tab 
 
 {End} 
 
 

	  

Request the video "Gitara"  -  Send "Gitara" Ringtone to your Cell

there isn't a video lesson for this song

request
e-chords
Search
auto scroll beats size up size down change color hide chords drawings
tab show chords e-chords YouTube Clip e-chords hide all tabs e-chords go to top tab