Paramore

home > Paramore > chords

Monster Tab

Paramore

Difficulty: BeginnerBeginner

by Acelot

tuner correct add songbook print version text version rtf version e-mail
chordsukulelecavacokeyboardtabbassdrumsharmonicsflute Guitar Pro
chords

Monster

Key:  G More
Monster Key C#C#
Monster Key DD
Monster Key D#D#
Monster Key EE
Monster Key FF(one step down)
Monster Key F#F#(half step down)
Monster Key GG(original key)
Monster Key G#G#(half step up)
Monster Key AA(one step up)
Monster Key A#A#
Monster Key BB
Monster Key CC
	  Verse: 
Guitar 1 (Clean/Echo effect) 
e|--------------------------------------------| 
B|-17~-12----17---------------17~-12----10----| 
G|-16~---12~---14~---14--16---16~---12~---11~-| 
D|-14~-------------14--14--14-14~-------------| 
A|--------------------------------------------| 
D|--------------------------------------------| 


Pre-Chorus: 
Guitar 1 (Clean/Echo effect) 
e|--------------------| 
B|-1717~----1717~-----| 
G|-1616~----1616~-----| 
D|-1414~----1414~-----| 
A|--------------------| 
D|--------------------| 

Guitar 2 (Distorted) 
e|-----------------------| 
B|-----------------------| 
G|-----------------------| 
D|--2-2---2-2-2----------| 
A|--2-2---2-2-2----------| 
D|--2-2---2-2-2----------| 

Chorus: 
Guitar 1 (Distorted) 
e|-----------------------------------------------| 
B|-----------------------------------------------| 
G|-7------17171717-19191919--16161616-17171717---| 
D|-x-x16--x-x-x-x--x-x-x-x---x-x-x-x--x-x-x-x----| 
A|-9------15151515-15151515--14141414-14141414---| 
D|-----------------------------------------------| 

Guitar 2 (Distorted) (Pattern is pretty simple to figure out) 
e|--------------------| 
B|--------------------| 
G|--------------------| 
D|--2---7---5---------| 
A|--2---7---5---------| 
D|--2---7---5---------| 
	  

Request the video "Monster"  -  Send "Monster" Ringtone to your Cell

there isn't a video lesson for this song

request
Search
auto scroll beats size up size down change color hide chords drawings
tab show chords e-chords YouTube Clip e-chords hide all tabs e-chords go to top tab