Outfield

home > Outfield > chords

Every Time You Cry Tab

Outfield

Difficulty: EasyEasy

by retana72

tuner correct add songbook print version text version rtf version e-mail
chordsukulelecavacokeyboardtabbassdrumsharmonicsflute Guitar Pro
chords

Every Time You Cry

	  INTRO:                                                              
   B                                                                
e------2--------4--------2--------4------------                     
B----4---4----5---5----4---4----5---5----------                     
G--4--------4--------4--------4----------------                     
D----------------------------------------------                     
A----------------------------------------------                     
E----------------------------------------------                     
                                                                    
e------2-------4-------2-------4-------2-------4-------2-------4--- 
B----4---4---5---5---4---4---5---5---4---4---5---5---4---4---5---5- 
G--4-------4-------4-------4-------4-------4-------4-------4------- 
D------------------------------------------------------------------ 
A------------------------------------------------------------------ 
E------------------------------------------------------------------ 
         I'm not the one to tell you what clothes to wear.          
                                                                    
   Amaj7                           B                                
e--------------4---------------4-------2-------4-------2-------4--- 
B------5-----5---5-----5-----5---5---4---4---5---5---4---4---5----- 
G----6---6-----------6---6---------4-------4-------4-------4------- 
D--7-------7-------7-------7--------------------------------------- 
A------------------------------------------------------------------ 
E------------------------------------------------------------------ 
         I'm not the one who talks about your hair...               
                                                                    
                                                                    
                                                                    
Solo. (sweet distorsion)                                            
        B                                              Amaj7        
e------------------------------------------------------------------ 
B------------2/4---------12-12-11v-9-11-7v----7-9b10-7------------- 
G-------4----2/4----9/11-------------------------------9----------- 
D---2h4-4---------------------------------------------------------- 
A---2h4------------------------------------------------------------ 
E------------------------------------------------------------------ 
                                                                    
e------------------------------------------------------------------ 
B---------7/9-9---9/12-12---9/12-12---12-12-14b16------------------ 
G------------------------------------------------------------------ 
D------------------------------------------------------------------ 
A------------------------------------------------------------------ 
E------------------------------------------------------------------ 
         B                                                          
e---------------------------------------------------16------------- 
B---------14b17v-14b16v--14-14-12----12-12-14b16b17---------------- 
G------------------------------------------------------------------ 
D------------------------------------------------------------------ 
A------------------------------------------------------------------ 
E------------------------------------------------------------------ 
	  

Request the video "Every Time You Cry"  -  Send "Every Time You Cry" Ringtone to your Cell

there isn't a video lesson for this song

request
Full key step upFull key step up
Half key step upHalf key step up
Half key step downHalf key step down
Full key step downFull key step down
e-chords
Search
auto scroll beats size up size down change color hide chords drawings
tab show chords e-chords YouTube Clip e-chords hide all tabs e-chords go to top tab