One Ok Rock

home > One Ok Roc... > chords

The Same As (acoustic) Tab

One Ok Rock

Difficulty: ExpertExpert

by aleffederico

tuner correct add songbook print version text version rtf version e-mail
chordsukulelecavacokeyboardtabbassdrumsharmonicsflute Guitar Pro
chords

The Same As (acoustic)

	  
Intro: 

e|-------------------------------------------------------| 
B|--------------------------4-5-------4-5----------------| 
G|-----8---------9---------4---4-----4---4-----8---------| 
D|----9-9-------9-9-------0---------0---------9-9----9---| 
A|---7---7-----9---9----0---------0----------7---7---9---| 
E|--7---------9---------0---------0---------7--------9---| 

verse 1&2:   
                                             
e|-------------------------------------------|   
B|--------------------------4-5-------4-5----|   
G|-----8---------9---------4---4-----4---4---|4x 
D|----9-9-------9-9-------0---------0--------|   
A|---7---7-----9---9----0---------0----------|   
E|--7---------9---------0---------0----------|   

nanigenai hibi just the same old thing 
nani ga kakete tarinai ka 
kidzukanai furishite temo I can't run away from myself 

i tried to show you i'm strong 
just get all along umaku amaetai kimochi ga 
hetakusona tsuyogari ni shika narazu 

Chorus: 

e|-----------------------------------------------------------| 
B|--------------------------4-5-------4-5--------------------| 
G|-----8---------9---------4---4-----4---4--------8----------| 
D|----9-9-------9-9-------0---------0------------9-9----9----| 
A|---7---7-----9---9----0---------0-------------7---7---9----| 
E|--7---------9---------0---------0------------7--------9----| 


the shape of love is the same as your heart is 
it doesn't matter who you are 
so tell me my heart is the same as yours is 


   Ahhh.. Ahhhhh.. Ahhhhh. 
e|-------------------------------------------|   
B|--------------------------4-5-------4-5----|   
G|-----8---------9---------4---4-----4---4---|2x 
D|----9-9-------9-9-------0---------0--------|   
A|---7---7-----9---9----0---------0----------|   
E|--7---------9---------0---------0----------|   

verse 2: 

sarigenaku morau sono aijou wa totemo fukakai de 
sunao ni wa ukeirerare 
nani ka wo mada tozashita mama 

no matter how much you say I can't escape 
ima nani ka wo kaete koto de 
kono saki ni hirogaru nani ka wo kaeru 

Chorus: 

e|--------------------------------------------| 
B|--------------------------4-5-------4-5-----| 
G|-----8---------9---------4---4-----4---4----|4x 
D|----9-9-------9-9-------0---------0---------| 
A|---7---7-----9---9----0---------0-----------| 
E|--7---------9---------0---------0-----------| 


the shape of love is the same as your heart is 
it doesn't matter who you are 
so tell me my heart is the same as yours is 
tatoe hakanakutomo 

kanashii toki sabishii toki itsumo soba ni aru kara 
and we hold every moment cos that's what family is for 

verse 3: 

e|--------------------------------------------| 
B|--------------------------4---------4-------| 
G|-----8---------9---------4---------4--------|1x 
D|----9---------9---------0---------0---------| 
A|---7---------9--------0---------0-----------| 
E|--7---------9---------0---------0-----------| 

e|---------------------------------------------------------|  |----| 
B|--------------------------4-5-------4-5------------------|  |----| 
G|-----8---------9---------4---4-----4---4-----8--------9--|3x|----| 
D|----9-9-------9-9-------0---------0---------9-9------9-9-|  |--9-| 
A|---7---7-----9---9----0---------0----------7---7----9----|  |--9-| 
E|--7---------9---------0---------0---------7--------9-----|  |--9-| 


kakegae no nai mono wo suteru yuuki nante 
boku ni wa kore bocchi wo mochiawase te wa nai kedo 
tokidoki naze ka tebanashite komara setai toki ga aru 
hinekureta kawai-ge no nai boku 

Chorus: 

e|--------------------------------------------| 
B|--------------------------4-5-------4-5-----| 
G|-----8---------9---------4---4-----4---4----|4x 
D|----9-9-------9-9-------0---------0---------| 
A|---7---7-----9---9----0---------0-----------| 
E|--7---------9---------0---------0-----------| 


the shape of love is the same as your heart is 
it doesn't matter who you are 
so tell me my heart is the same as yours is 
tatoe hakanakutomo 

kanashii toki sabishii toki itsumo soba ni aru kara 
and we hold every moment cos that's what family is for(yeah) 

Bridge: 

gone too far for so long 
got to find you've been right here all along 
(i wanna take you away from here) 

e|-------------------------------------| 
B|-------------------------------------| 
G|----4-44----6-66--888888--999999-----|4X 
D|--444444--666666--666666--777777-----| 
A|--222222--444444--666666--777777-----| 
E|--222222--444444--666666--777777-----| 

e|----------------------------------|  |-----| 
B|----------------------------------|  |-----| 
G|----------------------------------|  |-----| 
D|--222222--444444--666666--777777--|2x|--9--| 
A|--222222--444444--666666--777777--|  |--9--| 
E|--222222--444444--666666--777777--|  |--9--| 

Vesre 4: 

e|-------------------------| 
B|--------------5555--5555-| 
G|--8888--9999--4444--4444-|9x 
D|--9999--9999--0000--0000-| 
A|--7777--9999--0000--0000-| 
E|--7777--9999--0000--0000-| 

e 
kono sekaijuu de nani ga arou to 
boku wo aishite kurete 
itsudemo sotto yasashiku sotto 
mimamori tsudzuketeru 

tsuyoku yowaku toki ni kibishiku 
atatakana nukumori 
and we hold every moment cos that's what family is for 

the shape of love is the same as your heart is 
and tell me my heart is the same as yours is 
the shape of love is the same as your heart is 
and tell me my heart is the same as yours is***** 


PLS RATE! :) 
************************************ 

| /   slide up 
| \   slide down 
| x   Mute note 
| php Pilipinas 
	  

Request the video "The Same As (acoustic)"  -  Send "The Same As (acoustic)" Ringtone to your Cell

there isn't a video lesson for this song

request
e-chords
Search
auto scroll beats size up size down change color hide chords drawings
tab show chords e-chords YouTube Clip e-chords hide all tabs e-chords go to top tab