Oingo Boingo

home > Oingo Boin... > chords

Stay Tab

Oingo Boingo

Difficulty: EasyEasy

by Ariadne Gibb

tuner correct add songbook print version text version rtf version e-mail
chordsukulelecavacokeyboardtabbassdrumsharmonicsflute Guitar Pro
chords

Stay

Key:  Bb More
Stay Key EE
Stay Key FF
Stay Key F#F#
Stay Key GG
Stay Key G#G#(one step down)
Stay Key AA(half step down)
Stay Key BbBb(original key)
Stay Key BB(half step up)
Stay Key CC(one step up)
Stay Key C#C#
Stay Key DD
Stay Key D#D#
	  Stay - Oingo Boingo  
Versão original, do album "Dead Man's Party"  
( A que raramente toca nas rádios)  
  
Essa também pde ser usada para a versão do a;bum "BOingo Alive", ou seja, a que toca  
direto nas rádios.  
 
 
Intro:  
  
Teclado  
1|--13------8--| 
 
  
Aqui se localizava um erro na anterior: faltava nota 
e tinha nota no lugar errado.  
 
Main Riff  
|----------------------|---------------------------|----------------------| 
|----------------------|---------------------------|----------------------| 
|-------------------2--|-------------------2-------|-------------------2--| 
|-----3-1-3---1---1----|-----3-1-3---1---1-----1-3-|-----3-1-3---1---1----| 
|-----------3---3------|-----------3---3-----3-----|-----------3---3------| 
|-1-1------------------|-1-1-----------------------|-1-1------------------| 
 
|----------------------|---------------------------|----------------------| 
|----------------------|---------------------------|----------------------| 
|-------------------2--|-------------------2-------|-------------------2--| 
|-----3-1-3---1---1----|-----3-1-3---1---1-----1-3-|-----3-1-3---1---1----| 
|-----------3---3------|-----------3---3-----3-----|-----------3---3------| 
|-1-1------------------|-1-1-----------------------|-1-1------------------| 
 
|----------------------|---------------------------|----------------------| 
|----------------------|---------------------------|----------------------| 
|-------------------2--|-------------------2-------|----------------------| 
|-----3-1-3---1---1----|-----3-1-3---1---1-----1-3-|----------------------| 
|-----------3---3------|-----------3---3-----3-----|----------------------| 
|-1-1------------------|-1-1-----------------------|-1--------------------| 
 
  
 
(VERSO 1)  
This is not the first time--You tried to get away 
This is not a party--Where people know your name 
This is not a classroom--With teacher at the board 
This is not a catshow--With prizes at the door 
 
REFRÃO: 
                 Bb         F#          Bb         F#               Bb       F# 
|----------|-----------------|--------------------|-----------------| 
|----------|-----------------|--------------------|-----------------| 
|----------|-----3-----------|--------------------|-----3-----------| 
|----------|---3---3-----4---|-----8--------11----|---3---3-----4---| 
|----------|-1---------4---4-|---8---8---11----11-|-1---------4---4-| 
|----------|---------2-------|-6-------9----------|---------2-------| 
 
   Bb       F#                G#        F#          G#        C#         G#        F# 
|--------------------|-----------------|-----------------|-----------------| 
|--------------------|-----------------|-----------------|-----------------| 
|--------------------|-----------------|-------------6---|-----------------| 
|-----8--------11----|-----6-------4---|-----6-----6---6-|-----6-------4---| 
|---8---8---11----11-|---6---6---4---4-|---6---6-4-------|---6---6---4---4-| 
|-6-------9----------|-4-------2-------|-4---------------|-4-------2-------| 
 
   G#        C#  
|----------------| (Segue o Main Riff da Introdução, tocado sempre após o refrão.) 
|----------------| 
|-------------6--| 
|-----6-----6----| 
|---6---6-4------| 
|-4--------------| 
 
(VERSO 2) 
This is not a horse race--Where winners beat the time 
This is not a funeral--With mourners in a line 
This is not a sitcom--Where everything's alright 
This is not a prison--With terror through the night. 
 
 
REFRÃO: 
                 Bb         F#          Bb         F#               Bb       F# 
|----------|-----------------|--------------------|-----------------| 
|----------|-----------------|--------------------|-----------------| 
|----------|-----3-----------|--------------------|-----3-----------| 
|----------|---3---3-----4---|-----8--------11----|---3---3-----4---| 
|----------|-1---------4---4-|---8---8---11----11-|-1---------4---4-| 
|----------|---------2-------|-6-------9----------|---------2-------| 
 
   Bb       F#                G#        F#          G#        C#         G#        F# 
|--------------------|-----------------|-----------------|-----------------| 
|--------------------|-----------------|-----------------|-----------------| 
|--------------------|-----------------|-------------6---|-----------------| 
|-----8--------11----|-----6-------4---|-----6-----6---6-|-----6-------4---| 
|---8---8---11----11-|---6---6---4---4-|---6---6-4-------|---6---6---4---4-| 
|-6-------9----------|-4-------2-------|-4---------------|-4-------2-------| 
 
   G#        C#  
|----------------| (Segue o Main Riff da Introdução, tocado sempre após o refrão.) 
|----------------| 
|-------------6--| 
|-----6-----6----| 
|---6---6-4------| 
|-4--------------| 
 
 
VERSO 1 
REFRÃO  
 
Main Riff (mais curto): 
|----------------------|---------------------------| 
|----------------------|---------------------------| 
|-------------------2--|-------------------2-------| 
|-----3-1-3---1---1----|-----3-1-3---1---1-----1-3-|   2x 
|-----------3---3------|-----------3---3-----3-----| 
|-1-1------------------|-1-1-----------------------| 
 
REFRÃO 2 x (na segunda, A capela) 
 
Main RIff Até o final. 
 
 
  
--------------------------------------- 
Letra Cifrada: 
SOmente o Refrão vem cifrado, por enquanto, visto que  
nos versos a prsença da guitarra é nula. 
 
 
 
This is not the first time--You tried to get away 
This is not a party--Where people know your name 
This is not a classroom--With teacher at the board 
This is not a catshow--With prizes at the door 
 
CHORUS 
Bb   F#          Bb         F#                
Go--   Don't you go 
           Bb          F#       Bb    F# 
Won't you stay with me one more day 
G#            F#  G#       C#   
If we get through one more night 
G#            F#  G#       C#   
If we get through one more night 
 
 
 
This is not a horse race--Where winners beat the time 
This is not a funeral--With mourners in a line 
This is not a sitcom--Where everything's alright 
This is not a prison--With terror through the night.  
 
CHORUS 
Bb   F#          Bb         F#                
Go--   Don't you go 
           Bb          F#       Bb    F# 
Won't you stay with me one more day 
G#            F#  G#       C#   
If we get through one more night 
G#            F#  G#       C#   
If we get through one more night 

	  

Request the video "Stay"  -  Send "Stay" Ringtone to your Cell

there isn't a video lesson for this song

request
Full key step upFull key step up
Half key step upHalf key step up
Half key step downHalf key step down
Full key step downFull key step down
Search
auto scroll beats size up size down change color hide chords drawings
tab show chords e-chords YouTube Clip e-chords hide all tabs e-chords go to top tab