Oingo Boingo

home > Oingo Boin... > chords

Cinderella Undercover Tab

Oingo Boingo

Difficulty: nolevelnolevel

by Ariadne Gibb

tuner correct add songbook print version text version rtf version e-mail
chordsukulelecavacokeyboardtabbassdrumsharmonicsflute Guitar Pro
chords

Cinderella Undercover

(Oingo Boingo)

	  Intro: 
E---11---7---4------------------------------------------------------ 
B---11---7---4------------------------------------------------------ 
G---11---7---4------5---------------------------------------------- 
D---11---7---4----3-----5----------4----------4--------4--------- 
A---11---7---4---------3---0-----5---3-----5---3----5---3------ 
E---11---7---4----------------------------------------------------- 
Do that twice then the third time try this: 
E---11--------------7-----------4--------------------------------------- 
B---11-------------7------------4--------------------------------------- 
G---11-------------7---(7-7)---4-----5--------------------------------- 
D---11------(4)---7-------------4---3------5----------5-----------5--- 
A---11---(3)------7-------------4--------3---0------3---0------3---0- 
E---11-------------7-------------4--------------------------------------- 
I know that looks odd, but if you play it fast enough it will sound enough like the original.
Also please note that the notes in parentheses are to be played by picking the strings on the
fret board. I know it'll be hard to play that so fast, but that's because this part's done on
two guitars, with The Elf on acoustic (the full string strumming) and Bartek on electric.
Then the song goes into the MAIN RIFT: 
 
E--------------------------------------3---------------------------------------- 
B--------------------------------------3---------------------------------------- 
G--------4----------------------------3-----4-------------------------------- 
D---3---4---3-3-3---------3---2-------3--4----3-3-3----------3---1------- 
A---3---4---3-3-3---3---2-------------3--4----3-3-3---3---2--------1---2- 
E---1--------1-1-1----------------------1-------1-1-1------------------------ 
"When I was young my mind would always wander away" 
E-----------------------------------3--- 
B-----------------------------------3--- 
G--------4-------------------------3--- 
D---3---4---3-3-3---------3---2----- 
A---3---4---3-3-3---3---2----------- 
E---1--------1-1-1-------------------- 
"I couldn't talk, I never had nothing to say" 
E------------------------------------------- 
B------------------------------------------- 
G--------4--------------------------------- 
D---3---4---3-3-3----------3---1-------- 
A---3---4---3-3-3---3---2-------1---2- 
E---1--------1-1-1----------------------- 
And it just does that for the rest of the song. I'll try ad complete it later, 
but at least we've got the bare bones of the song!!! 
 

	  

Request the video "Cinderella Undercover"  -  Send "Cinderella Undercover" Ringtone to your Cell

there isn't a video lesson for this song

request
Search
auto scroll beats size up size down change color hide chords drawings
tab show chords e-chords YouTube Clip e-chords hide all tabs e-chords go to top tab