Nazareth

home > Nazareth > chords

Woke Up This Morning Tab

Nazareth

Difficulty: BeginnerBeginner

by Rock on

tuner correct add songbook print version text version rtf version e-mail
chordsukulelecavacokeyboardtabbassdrumsharmonicsflute Guitar Pro
chords

Woke Up This Morning

Year: 1972 - Album: 36 Massive Rock Tracks

	  Woke Up This Morning 
By Nazareth 
Tabbed by Conart_cry 
 
This  is song is in Open G tuning, the sixth string could be D but I  like to octave  it! If you don't like it then I'm not sorry! 
 
 the  * before a note means  to rake 
Long opening slide                              Do this with  fingers 
D|-5-/----------*12-/--------------*17-~~~~---------------- 
B|-5-/------*10---/-----------*16-------------{17--\------- 
G|-5-/---*8-----/--------*15------------------{17--\------- 
D|-5-/----------------------------------------{17--\------- 
G|-5-/----(8)-/----/(12)----/------(17)-------------------- 
G|--------------------------------------------------------- 
                                 PM rake   X = do dead stops after  notes 
D|------------------10-~~~~-----*-/-13x-12x-11x-10-\-7--------- 
B|----------5-/--10-----------*------------------------8-/-10-- 
G|----5-----5-/--10---------*---------------------------------- 
D|-5--------5-/--10-------------------------------------------- 
G|------------------------------------------------------------- 
G|------------------------------------------------------------- 
                                                                      Band  crash 
D|-10----------------------------------7--------------------------------------- 
B|----10--------------------5---5-/-7-----7-\-5-----------------5---(5)--5--\-- 
G|-------10\-(9)-9--8--7--5----------------------5-5-\-3-0--3-/-5---(5)--5--\-- 
D|-------------------------------------------------5-----0--3-/-5---(5)--5--\-- 
G|-----------------------------------------------------------------------5--\-- 
G|----------------------------------------------------------------------------- 
 
D|--10-\-------17--17~~~~~~~--17\16-17\16-17/16--------------------- 
B|--10-\-7--/--17--------------------------------17-\-10-------/-10- 
G|--10-\-7--/--17--------------------------------------------5------ 
D|--10-\-7--/----------------------------------------------5-------- 
G|------------------------------------------------------------------ 
G|------------------------------------------------------------------ 
                                                                      Band  Crash 
D|---------------------------------------------------------------------------- 
B|-10------0/5--10----(10)\------5/10\-------5/13\--------0-3-0-/-5~~~~~-5-/-- 
G|----10\--0/5-----10-(10)\-5-----------5-----------5-----0-3-0-/-5~~~~~-5-/-- 
D|----------------------------5-----------5------------5--0-3-0-/-5~~~~~-5-/-- 
G|-----------------------------------------------------------------------5-/-- 
G|---------------------------------------------------------------------------- 
 
Well,  since it's already in open G tuning 
It pretty much uses this  through and  through! 
D|------------------------------------------------ 
B|------------------------------------------------ 
G|------------------------------------------------ 
D|--5--7--5-5----5--7--5--5---5--8--5--7--5--7--5- 
G|--5--5--5-5----5--5--5--5---5--5--5--5--5--5--5- 
G|------------------------------------------------ 
  
 
 
Fonte: http://www.nazareth.no/guitar_tabs/woke%20up%20this%20morning.htm 

	  

Request the video "Woke Up This Morning"  -  Send "Woke Up This Morning" Ringtone to your Cell

there isn't a video lesson for this song

request
Full key step upFull key step up
Half key step upHalf key step up
Half key step downHalf key step down
Full key step downFull key step down
Search
auto scroll beats size up size down change color hide chords drawings
tab show chords e-chords YouTube Clip e-chords hide all tabs e-chords go to top tab