Mymp

home > Mymp > chords

Especially For You Tab

Mymp

Difficulty: BeginnerBeginner

tuner correct add songbook print version text version rtf version e-mail
chordsukulelecavacokeyboardtabbassdrumsharmonicsflute Guitar Pro
chords

Especially For You

	  Transcribed by: Walter Michael F. De la Cruz - Saint Louis University, Baguio City 
                     (Walterfdelacruz@yahoo.com) 
                           09224012464 
 
Note: 
Mga Dudez!! Eto na ung talagang Tab ng Especially 4 u. Tamang tama na to. This is 100% 
accurate. I assure u. No.1 To sa KLITE Baguio. ASteeg!! 
This song Goes to Thamilyn(our song), Aicel(eto n ung tama), Gaienne(hintayin u ako sa 
KLITE LIVE.hehehe), Tina( this song is ur favorite), Pauline,Shiela, Shane(para sau), 
Sheryl Mhei, Rye, kris, donna At para sa lahat ng nag request skin. 
 
Intro:                   Verse: 
 
                                       F       
E|-----------------------*-------0-0-------0---------| 
B|--t-------3--t--3------*-----------t--1----1--t----| 
G|--a-------3--a--3------*-----------a----------a----| 
D|--p----------p---------*-----------p----------p----| 
A|----harm3-3-----3------*---------------------------| 
E|-----------------------*-------1------1------------| 
                 Especially for you           
 
                   Dm                             Bb 
E|--------------------------------------*-------3--------3----------| 
B|---------3---3---------3--------3-----*----3-----t--3----3--t-----| 
G|-----------------t--------------------*----------a----------a-----| 
D|-----------------a--------------------*----------p----------p-----| 
A|---------5-------p-----5---5----------*----1--------1-------------| 
E|--------------------------------------*---------------------------| 
  I wanna let you know what I was going      Through 
 
 
                        C9 
E|------------------------------3--------------------------------------| 
B|-----------3--3---t----3-----------t---------------------------------| 
G|------------------a----------------a---------------------------------| 
D|------------------p----------------p---------------------------------| 
A|-----------3-----------3---3-----------------------------------------| 
E|---------------------------------------------------------------------| 
   All the time we were apart I thought of 
 
 
      F		     Am             Dm7              C            Bb	 
E|-----1-----*----------------------5-5----------------------------------| 
B|-----1--t--*---------5----t-------6-6----------------5--t-----1-t------| 
G|-----2--a--*---------5----a-------5-5----------------5--a-----1-a------| 
D|-----3--p--*---------7----p-------7-7----------------5--p-------p------| 
A|-----------*---------7----------5----------------3----------1----------| 
E|---1-------*-----5-----------------------------------------------------| 
     You ,        You were in my heart       My love never change 
 
 
           Bb               C9                  F 
E|---------------------------------------------0-0-------0------------| 
B|--------1-t----1-t----3------3-------------------t--1----1--t-------| 
G|--------1-a----1-a----3---t--3-------------------a----------a-------| 
D|----------p------p--------a----------------------p----------p-------| 
A|------1------1--------3---p--3--------------------------------------| 
E|---------------------------------------------1------1---------------| 
      I still feel the same     Especially for you 
 
 
 
 
                   Dm                             Bb 
E|--------------------------------------*-------3--------3----------| 
B|---------3---3---------3--------3-----*----3-----t--3----3--t-----| 
G|-----------------t--------------------*----------a----------a-----| 
D|-----------------a--------------------*----------p----------p-----| 
A|---------5-------p-----5---5----------*----1--------1-------------| 
E|--------------------------------------*---------------------------| 
  I wanna tell you I was feeling that way    too 
 
 
 
                        C9 
E|-----------------------------------3---------------------------------| 
B|-----------3--3---t------3------------------t------------------------| 
G|------------------a-------------------------a------------------------| 
D|------------------p-------------------------p------------------------| 
A|-----------3-------------3-----3-------------------------------------| 
E|---------------------------------------------------------------------| 
 And if dreams were wings, you know I have flown to  
 
 
 
      F		     Am             Dm7              C            Bb	 
E|-----1-----*----------------------5-5---------------------------------| 
B|-----1--t--*---------5----t-------6-6----------------5--t-------------| 
G|-----2--a--*---------5----a-------5-5----------------5--a-----3--3----| 
D|-----3--p--*---------7----p-------7-7----------------5--p-----3--3----| 
A|-----------*---------7----------5----------------3------------1--1----| 
E|---1-------*-----5----------------------------------------------------| 
   You            to be where  you are            no matter how far 
 
 
E|---------------------------------------------------------------------| 
B|---------------------------------------------------------------------| 
G|----3----3------3--------3-------------------------------------------| 
D|----3----3------3--------3-------------------------------------------| 
A|----1----1------1--------1-------------------------------------------| 
E|---------------------------------------------------------------------| 
   And now that I'm next to you 
 
 
Refrain: (Pakinggan u ung strumming ni chin dito para makuha nyo) 
 
 
             F 
E|---------------------------------------------------------------------| 
B|---------------------------------------------------------------------| 
G|--2---2--2----2-----2----2----2--------------------------------------| 
D|--3---3--3----3-----3----3----3--------------------------------------| 
A|--3---3--3----3-----3----3----3--------------------------------------| 
E|--1---1--1----1-----1----1----1--------------------------------------| 
    No more dreaming about tomorrow 
 
 
             A7 
E|---------------------------------------------------------------------| 
B|---------------------------------------------------------------------| 
G|---6---6----6-------6-----6-----6---6--------------------------------| 
D|---5---5----5-------5-----5-----5---5--------------------------------| 
A|---7---7----7-------7-----7-----7---7--------------------------------| 
E|---5---5----5-------5-----5-----5---5--------------------------------| 
   Forget the loneliness and the sorrow 
 
 
 
          Dm7                           Bb 
E|---5--5--5---5---5--5--5---5---5--*----------------------------------| 
B|---6--6--6---6---6--6--6---6---6--*----------------------------------| 
G|---5--5--5---5---5--5--5---5---5--*---7-7---7---7--7--7----7---------| 
D|---7--7--7---7---7--7--7---7---7--*---8-8---8---8--8--8----8---------| 
A|---5--5--5---5---5--5--5---5---5--*---8-8---8---8--8--8----8---------| 
E|----------------------------------*---6-6---6---6--6--6----6---------| 
    I've got to say its all because of  you and now we're back   
 
 
 
Chorus: (this part is a little tricky with tapping and dapat mabilis kamay nyo) 
 
 
      Am          Dm7         Gm         C 
E|-------5---------5------------3------------3-------------------------| 
B|-------5-t-------6--t---------3---t--------3---t---------------------| 
G|-------5-a-------5--a---------3---a--------5---a---------------------| 
D|---------p-------7--p-------------p------------p---------------------| 
A|--------------5-----------------------3------------------------------| 
E|----5----------------------3-----------------------------------------| 
    Toge -     ther    ,  Toge   -    ther   I wanna    
  
 
 
      Am          Dm7                 Gm         C 
E|-------5---------5---------------------3---------------3---------------| 
B|-------5-t-------6--t------------------3---t-----------3--t------------| 
G|-------5-a-------5--a------------------3---a-----------5--a------------| 
D|---------p-------7--p----------------------p--------------p------------| 
A|--------------5---------------------------------3----------------------| 
E|----5-------------------------------3----------------------------------| 
      Show      you my heart is       oh   so    true  and all the  
 
 
 
      Am          Dm7                 Gm         C 
E|-------5---------5---------------------3------------3-------------------| 
B|-------5-t-------6--t------------------3---t--------3---t---1--t-1--1-t-| 
G|-------5-a-------5--a------------------3---a--------5---a------a------a-| 
D|---------p-------7--p----------------------p------------p------p------p-| 
A|--------------5---------------------------------3-----------------------| 
E|----5-------------------------------3-----------------------1----1-1----| 
     Love      I had          is       especially     for you 
 
 
Verse 2 (just like verse 1, diskarte u n lng po.) 
 
E|---------------------------------------------------------------------| 
B|--3--t--3------------------------------------------------------------| 
G|--3--a--3------------------------------------------------------------| 
D|-----p---------------------------------------------------------------| 
A|--3-----3------------------------------------------------------------| 
E|---------------------------------------------------------------------| 
         Especially for you  
 
 
I wanna tell you, you mean all the world to me 
How I'm certain that our love was meant to be 
You changed my life 
You showed me the way 
+And now that I'm next to you 
 
 
Refrain 2:(just like refrain) 
ive waited long enough to find you 
I wanna put all the hurt behind you Oh, 
And I wanna bring out all the love inside you,Oh 
 
Repeat Chorus 
 
Adlib: 
 
E---------------------------------------------------------| 
B--------------------------------------------7-8/10-8-----| 
G---7-9-9s10-9-7-7h9-7s5-------5-7-7-7-8-7-8--------------| 
D--7-------------------------7----------------------------| 
A--------------------------5------------------------------| 
E---------------------------------------------------------| 
 
E---------------------------------------------------------| 
B---------------------------------------------------------| 
G---------------------------------------------------------| 
D--10p8-10p8-10-8-10-10/12-10-8-7-------------------------| 
A---------------------------------------------------------| 
E---------------------------------------------------------| 
 
Ending: 
     
     C9     F 
E|-------------1--------------------------------------------------------| 
B|--3--t--3----1--------------------------------------------------------| 
G|--3--a--3----2--------------------------------------------------------| 
D|-----p-------3--------------------------------------------------------| 
A|--3-----3----3--------------------------------------------------------| 
E|-------------1--------------------------------------------------------| 
 
 
Pnaghirapan ko tlga yan mga peepz. Hope you'll enjoy.  
 
 
Suggestions,questions?? send me a message in friendster at Walterfdelacruz@yahoo.com or you  
text me or call me at 09224012464.. 

	  

Request the video "Especially For You"  -  Send "Especially For You" Ringtone to your Cell

there isn't a video lesson for this song

request
Full key step upFull key step up
Half key step upHalf key step up
Half key step downHalf key step down
Full key step downFull key step down
e-chords
Search
auto scroll beats size up size down change color hide chords drawings
tab show chords e-chords YouTube Clip e-chords hide all tabs e-chords go to top tab