Mr. Big

home > Mr. Big > chords

To Be With You Tab

Mr. Big

Difficulty: BeginnerBeginner

tuner correct add songbook print version text version rtf version e-mail
chordsukulelecavacokeyboardtabbassdrumsharmonicsflute Guitar Pro
chords

To Be With You

	   {c: verse 1}
 C#mHold on Elittle girl.  Asus2Show me what he's Edone to you.
 C#mStand up Elittle girl.  A Asus2broken heart can't Ebe that bad.
 Asus2When it's through, it's Ethrough.  Asus2Fate will twist the Eboth of you.
 So Dcome on baby, come on over.  BLet me be the one to show you.
 {c:chorus}
 {start_of_chorus}
 (the following progression is repeated 4x in the chorus.)
 EIm the one who Asus2wants to Bbe with Eyou
 EDeep inside I Asus2hope you'll Bfeel it Etoo.
 EWaited on a Asus2line of Bgreens and Eblues
 Ejust to be the Asus2next to Bbe with Eyou.
 {end_of_chorus}
 {c: verse 2}
 C#mBuild up your Econfidence so Asus2you can be on Etop for once.
 C#mWake up! Who Ecares about Asus2little boys that Etalk to much?
 I Asus2seen it all go Edown.  Your Asus2game of love was Eall rained out.
 So Dcome on baby, come on over.  BLet me be the one to hold you.
 {c: chorus}
 {c:bridge}
 Asus2Why be alone when we can C#mbe together baby?  
 GYou can make my life worthwhile.  I can make you start to Esmile.
 {c:solo}
     sl.                        h  p  h
 -----------------------|----------------------------|
 ----------5------------|----------------------------|
 -1--2/-4-----6----4----|-4----4---------------------|
 -2--4/-6-----7----7----|-4----4--6--4--6------------|
 -----------------------|----------------------------|
 -----------------------|----------------------------|
     sl.            ~~~    h  p p     let ring
 ------------------4----|-2--4-2-0----0--0-----------|
 ----------5---~~~-5----|----------0--0--0-----------|
 -1--2/-4-----6---------|----------------------------|
 -2--4/-6-----7---------|----------------------------|
 -----------------------|----------------------------|
 -----------------------|---------------------0------|
     sl.                 
 -----------------------|----------------------------|
 ----------5------------|--7----9--9----------12-10--|
 -1--2/-4-----6----4----|--8----9--9---------9--9----|
 -2--4/-6-----7----7----|--9----11-11----9-11--------|
 -----------------------|-------------/11------------|
 -----------------------|----------------------------|
                      ~~   h  p p       n.h.   sl                        
 --~~~---------------4--|-2--4-2-0--0---12-----------|
 -9---10--12---------5--|---------0-----12-----------|
 ------------/9---~~----|---------------------11/13--|
 ---------------11\-----|----------------------------|
 -----------------------|----------------------------|
 -----------------------|----------------------------| 
 {c:verse 3}
 (same as first verse, except ending strum pattern on B chord is quarter,
  quarter, half notes, with a hold on the half)
 

 GIm the one who Cadd9wants to Dbe with Gyou.
 GDeep inside I Cadd9hope you'll Dfeel it Gtoo.
 GWaited on a Cadd9line of Dgreens and Emblues
 Gjust to be the Cadd9next to Dbe with Gyou.
 (back to E progression)
 EIm the one who Asus2wants to Bbe with Eyou
 EDeep inside I Asus2hope you'll Bfeel it Etoo.
 EWaited on a Asus2line of Bgreens and C#mblues
 Ejust to be the Asus2next to Bbe with Eyou.
 Ejust to be the Asus2next to Bbe with Eyou.     (hold E on ending)

	  

Request the video "To Be With You"  -  Send "To Be With You" Ringtone to your Cell

to-be-with-you-by-mr-big Play

there is a video lesson for this song

watch now

Full key step upFull key step up
Half key step upHalf key step up
Half key step downHalf key step down
Full key step downFull key step down
Search
auto scroll beats size up size down change color hide chords drawings
tab show chords e-chords YouTube Clip e-chords hide all tabs e-chords go to top tab