Mr. Big

home > Mr. Big > chords

Green-Tinted Sixties Mind Tab

Mr. Big

Difficulty: BeginnerBeginner

tuner correct add songbook print version text version rtf version e-mail
chordsukulelecavacokeyboardtabbassdrumsharmonicsflute Guitar Pro
chords

Green-Tinted Sixties Mind

Year: 1991 - Album: Extended Versions

	   
intro 
 
e-------0h2p0------0h7h5p0------0h5h7t12h7p5--|-t17p10h12-t17p5h7-t16p4p0h4h7-t12/t16t\12p7p4---| 
B---------------------------------------------|-------------------------------------------------| 
G--------------4------------2h4---------------|-------------------------------------------------| 
D---------------------------------------------|-------------------------------------------------| 
A---------------------------------------------|-------------------------------------------------| 
E---------------------------------------------|-------------------------------------------------| 
 
e-t17p10h12-t17p5h7-t16p4p0h4h7-t12/t16\12p7p4|-------------------------------------------------| 
B---------------------------------------------|-------------------------------------------------| 
G---------------------------------------------|-------------------------------------------------| 
D---------------------------------------------|-------------------------------------------------| 
A---------------------------------------------|-------------------------------------------------| 
E---------------------------------------------|-------------------------------------------------| 
 
 
         E       E#4       D/E         E                     PM.........................A5                 
e-----------------------|---------------------|---------------0-----------|---------------------| 
B--------9-------10v----|---------------------|-----------------0---------|---------0-----------| 
G--------9-------9v-----|---7----------9~~~~--|--1-----2~~---------2------|-------2------2------| 
D-----------------------|---7----------9~~~~--|--2-----2~~----------------|--------------2------| 
A-----------------------|---------------------|---------------------------|--2-----------0------| 
E------------x--------x-|-----------x---------|---------------------------|---------------------| 
 
 
      E5                                harm.                                D7            E     
e-----------------------|---------------------|----12~~-------------------|---------------------| 
B-----5-----------------|----------------12---|---------------------------|--14-14-14-14---12---| 
G-----4-----------------|---------------------|---------------------------|--14-14-14-14---13---| 
D-----2-----------------|---------------------|---------------------------|---------------------| 
A-----------------------|---------------------|---------------------------|---------------------| 
E-----------------------|---------------------|---------------------------|---------------------| 
 
 
     E5                                                                      E#4    E/D     E/C# 
                                         harm                                          pm.. pm.. 
e-----------------------|---------------------|----12~~-------------------|---------------------| 
B----5------------------|-----------------12--|---------------------------|-10-10-10-9------9---| 
G----4------------------|---------------------|---------------------------|--9--9--9-9------9---| 
D----5------------------|---------------------|---------------------------|--9--9--9-9------9---| 
A-----------------------|---------------------|---------------------------|---------------------| 
E-----------------------|---------------------|---------------------------|------------10-10-10-| 
 
  
    A(aad9)/C#  C#m7      E/B        B           Em/D    D                 E  riff 1                  
             p.m...                                                       p.m..   p.m...   p.m 
e-----------------------|---------------------|--7-7-7\--5---------------|---------------------| 
B--10-10-10-9-------9---|-9-9-9----7-7-7------|--8-8-8\--7---------------|------5--------------| 
G--9--9--9--9-------9---|-9-9-9----8-8-8------|--9-9-9\--7---------------|------4--------4-----| 
D--9--9--9--9-------9---|-9-9-9----9-9-9------|-----------------(14)\----|------2--------2-----| 
A-----------------------|---------------------|-----------------(14)\----|---------------------| 
E-------------9--9------|---------------------|--------------------------|--0-0----0--0------0-| 
 
 
     F#                  E/G#           Amaj9                              C#m7 gtr2 tocar riff2  
   pm...      pm..  pm.......    pm..                  harm........        pm...    pm... 
e-----------------------|---------------------|------------------12------|-------4--------4----| 
B--------2---------2----|-----5--------5---9--|----------------12--------|-------4--------4----| 
G--------3---4-----3----|-----4--------4---9--|--------------------------|-------4--------4----| 
D--------4---4-----4----|-----6--------6---9--|-----------7---------(11)\|-------6--------6----| 
A-----------------------|------------------0--|---------7-----------(11)\|--4-4-----4--4-------| 
E---2--2-------2-2----2-|-4--4-----4----------|--------------------------|---------------------| 
 
 
 
     Bsus4 B  E/B   A#m7(b5)                     A5      B5                 E       Esus4 
                                                          fim do riff 1                                  
e---------------4----4-|-------4--------------|--------------------------|---------------------| 
B----5-5-5-4----5----5-|-----------5----------|------------------10------|--9------10~~~~------| 
G----4-4-4-4----4----6-|---------------6\-----|--------------------------|--9-------9~~~~------| 
D----4-4-4-4---------6-|---------------6\-----|---2-------4--------------|---------------------| 
A----------------------|----------------------|---0-------2--------------|---------------------| 
E----------------------|----------------------|--------------------------|------x-----------x--| 
 
 
 
 
       D/E       E                                                          A5        B5     
                                  pm......................... 
e----------------------|-----------0----------|--------------------------|---------------------| 
B----------------------|--------------0-------|-----------0--------------|-------------9--10---| 
G------7---------9~~~--|-1---2~~--------2-----|--------2-----2-----------|---------------------| 
D------7---------9~~~--|-2---2~~--------------|--------------2-----------|---2-----4-----------| 
A----------------------|----------------------|----2---------0-----------|---0-----2-----------| 
E-----------x----------|----------------------|--------------------------|---------------------| 
 
 
 
 
     E                                           C#m7 
e----------------------|----------------------|--------------------------|---------------------| 
B----9~~--------9--10--|--9~~----12~~----9-10-|--9~~-------------9---10--|--9------15b---9--10-| 
G---------9\-----------|------9-------9-------|--9~~--9\---------9----9--|--9------------------| 
D----------------------|----------------------|--------------------------|---------------------| 
A----------------------|----------------------|--------------------------|---------------------| 
E----------------------|----------------------|--------------------------|---------------------| 
 
 
 
 
     E/D                                        B                 B/A              G#m7 
e----------------------|----------------------|----------------|----------------|--------------| 
B-----9~~---------9-10-|-9-----12\-----4--5---|--4--------4--5-|--4------4--5---|-4------4--5--| 
G-----------9\----9--9-|-9------9\-----4--4---|--4--------4--4-|--4------4--4---|-4------4--4--| 
D----------------------|------0---------------|------4---------|------4---------|-----6--------| 
A----------------------|----------------------|----------------|----------------|--------------| 
E----------------------|----------------------|----------------|----------------|--------------| 
 
 
    G              F#                                    F#7 
e----------------|--------------------|--------------|-----------------------------------------| 
B---4-----11-12--|--11~~------11--12--|-11~---11--12-|16b(16)14h16p14-------------14-17b(17)17-| 
G---4------------|-------11---11--11--|-11~11-11--11-|----------------16-15--15-16-------------| 
D-----/13--------|--------------------|--------------|---------------------16------------------| 
A----------------|--------------------|--------------|-----------------------------------------| 
E----------------|--------------------|--------------|-----------------------------------------| 
 
 
 
 
tocar riff I | base=E F# E/G# Amaj7   
gtrII tocar o Riff 3 | base= C#m7 Bsus4 B E/B A#m7(b5)  A5   B5 
tocar riff e gtrII tocar o Riff4 |base= E F# E/G# Amaj9 
gtrII tocar o riff 2 |base= C#m7 Bsus4 B E/B A#m7(b5) A5 B5  
 
 
        E 
  
e-------0h2p0------0h7h5p0------0h5h7t12h7p5--|-t17p10h12-t17p5h7-t16p4p0h4h7-t12/t16t\12p7p4---| 
B---------------------------------------------|-------------------------------------------------| 
G--------------4------------2h4---------------|-------------------------------------------------| 
D---------------------------------------------|-------------------------------------------------| 
A---------------------------------------------|-------------------------------------------------| 
E---------------------------------------------|-------------------------------------------------| 
 
 
                                                       D5    E5        gtrIIriff tocar o riff 5 
e-t17p10h12-t17p5h7-t16p4p0h4h7-t12/t16\12p7p4|-------(0)----(0)--------------------------------| 
B---------------------------------------------|-------------------------------------------------| 
G---------------------------------------------|-------------------------------------------------| 
D---------------------------------------------|-------------------------------------------------| 
A---------------------------------------------|-------------------------------------------------| 
E---------------------------------------------|-------------------------------------------------| 
 
 
riff 2 
e----------------|----------------|-----------| 
B----------------|----------------|-----------| 
G----------------|----------------|-----------| 
D----------------|----------------|-----------| 
A-----4~~~~~-----|--2--2--4----1--|-(1)~~~~~--| 
E----------------|----------------|-----------| 
 
riff 3  
 
e----------------|----------------|-----------| 
B----------------|----------------|-----------| 
G----------------|----------------|-----------| 
D----------------|----------------|-----------| 
A---4~~~~--4-----|-4~~2--4--2--1--|--(1)~~~~--| 
E----------------|----------------|-----------| 
 
riff 4  
 
e----------------|----------------|-----------| 
B----------------|----------------|-----------| 
G----------------|----------------|-----------| 
D----------------|----------------|-----------| 
A----------------|----------------|-----------| 
E-------0--------|-2--4--0--5-----|-5---------| 
 
riff 5 
 
e------------------------|--------------------| 
B------------------------|--------------------| 
G------------7--7----9---|--------------------| 
D------------7--7----9---|--------------------| 
A------------------------|--------------------| 
E------------------------|--------------------| 
 
 
 
tabs explanation 
 
t/ tappings slide 
t- tappings 
/- slide 
~- vibrator 
()-ghost note 
h - Hammer-on 
p - Pull-off 
harm-natural harmonic 
 
 
 
_______________________________________________________ 
Contribuição: rodrigo luis veiga de souza hinojosa(reinassance_@hotmail.com) 

	  

Request the video "Green-Tinted Sixties Mind"  -  Send "Green-Tinted Sixties Mind" Ringtone to your Cell

there isn't a video lesson for this song

request
e-chords
Search
auto scroll beats size up size down change color hide chords drawings
tab show chords e-chords YouTube Clip e-chords hide all tabs e-chords go to top tab