Motley Crue

home > Motley Cru... > chords

Shout At The Devil Tab

Motley Crue

Difficulty: ExpertExpert

tuner correct add songbook print version text version rtf version e-mail
chordsukulelecavacokeyboardtabbassdrumsharmonicsflute Guitar Pro
chords

Shout At The Devil

	  D tuning- DAFCGD 
 
/- slide up 
\\- slide down   
~- let ring  
b- ful bend 
nh- natural harmonic 
ph- pinch harmonic 
x- muted 
PM- palm mute 
tr(#)- trill(read note above this section) 
 
 
intro- x2 
 slight PM open G\'s 
d-------------------------------- 
a-------------------------------- 
f---------5~--------------7~-----  
c---------5~--------------7~----- 
g--0-0--0-----x\\---0-0--0-----x\\- 
d-------------x\\--------------x\\- 
 
slight PM open G\'s 
-------------------------------------------------  
-------------------------------------------------  
---------5~---------7~---------5~--------------5-  
---------5~---------7~---------5~------5-7--5--5-  
--0-0--0-----0-0--0----0-0--0------5-7---------3- 
------------------------------------------------- 
 
slight PM open G\'s 
------------------------------------------------- 
-------------------------------------------------  
---------5~---------7~---------5~-----------7-5~-  
---------5~---------7~---------5~------5-7-------  
--0-0--0-----0-0--0----0-0--0------5-7----------- 
------------------------------------------------- 
 
intro lead  
--------------------------------------  
--13----12----10------13----15----10--  
--15b---14b---12b-----15b---17b---12b-  
-------------------------------------- 
-------------------------------------- 
-------------------------------------- 
 
verse -x4                     on 4th play this  
------------------------|-------------------------------  
------------------------|-------------------------------  
--7-5-2-2--2-5--7-5-5-2-|-7-5-2-2--2-5-----5-5----------  
--7-5-2-2--2-5--7-5-5-2-|-7-5-2-2--2-5-----5-5-----5---- 
--5-3-0-0--0-3--5-3-3-0-|-5-3-0-0--0-3--3--3-3--2--2--2- 
------------------------|-------------------------------  
 
chorus- x2 
slight PM open G\'s 
------------------------------------------------- 
-------------------------------------------------  
---------5~---------7~---------5~-----------7-5~-  
---------5~---------7~---------5~------5-7-------  
--0-0--0-----0-0--0----0-0--0------5-7----------- 
------------------------------------------------- 
 
verse -x4                     on 4th play this  
------------------------|-------------------------------  
------------------------|-------------------------------  
--7-5-2-2--2-5--7-5-5-2-|-7-5-2-2--2-5-----5-5----------  
--7-5-2-2--2-5--7-5-5-2-|-7-5-2-2--2-5-----5-5-----5---- 
--5-3-0-0--0-3--5-3-3-0-|-5-3-0-0--0-3--3--3-3--2--2--2- 
------------------------|-------------------------------  
  
chorus- x2 
slight PM open G\'s 
------------------------------------------------- 
-------------------------------------------------  
---------5~---------7~---------5~-----------7-5~-  
---------5~---------7~---------5~------5-7-------  
--0-0--0-----0-0--0----0-0--0------5-7----------- 
------------------------------------------------- 
 
solo 
gtr 2  
                  PM---------| 
--------------------------------  
--------------------------------  
--------------------------------  
--2-2---2-2--x-2-2--------------  
--2-2---2-2--x-2-2--------0-2-3-  
--0-0---0-0--x-0-0--0-2-3-------  
 
gtr 1          
-------------- 
--8----7---5-- 
--10b--9b--7b- 
-------------- 
-------------- 
-------------- 
 
 
hammer on and pull off the 12th and 15th fret as quick as possible 
and reach around with your pick hand and pull up jerkingly 
behind the 12th fret on the A string towards the ceiling.  
this gives you the trilled bends. 
 
gtr 1               nh 
----------------------- 
--12-tr(15)---12\\----5- 
---------------------5- 
----------------------- 
----------------------- 
----------------------- 
 
gtr 2  
                  PM---------| 
--------------------------------  
--------------------------------  
--------------------------------  
--2-2---2-2--x-2-2--------------  
--2-2---2-2--x-2-2--------0-2-3-  
--0-0---0-0--x-0-0--0-2-3------- 
 
gtr 1          semi ph 
------------------------------ 
--8----10--------------------- 
--10b--12b-----2b--2--2----2~- 
------------------------------ 
------------------------------ 
------------------------------ 
 
-------------  
-------------  
------------- 
--2-2--------  
--2-2---5--6- 
--0-0---3--4- 
 
verse -x4                     on 4th play this  
------------------------|-------------------------------  
------------------------|-------------------------------  
--7-5-2-2--2-5--7-5-5-2-|-7-5-2-2--2-5-----5-5----------  
--7-5-2-2--2-5--7-5-5-2-|-7-5-2-2--2-5-----5-5-----5---- 
--5-3-0-0--0-3--5-3-3-0-|-5-3-0-0--0-3--3--3-3--2--2--2- 
------------------------|-------------------------------  
 
chorus- x2 
slight PM open G\'s 
------------------------------------------------- 
-------------------------------------------------  
---------5~---------7~---------5~-----------7-5~-  
---------5~---------7~---------5~------5-7-------  
--0-0--0-----0-0--0----0-0--0------5-7----------- 
------------------------------------------------- 
 
 
--break-- 
 
  
--------------------  
--------------------  
---------------7-5~-  
-----------5-------- 
--12\\--5-7---7------ 
--------------------  
 
chorus- x2 
slight PM open G\'s 
------------------------------------------------ 
------------------------------------------------  
--------5~---------7~---------5~-----------7-5~-  
--------5~---------7~---------5~------5-7-------  
-0-0--0-----0-0--0----0-0--0------5-7----------- 
------------------------------------------------ 
 
outro- x3 
PM open G\'s 
----------------------------------  
----------------------------------  
---------------------------------- 
---------4/5-------------6/7------  
-0--0-0--2/3--0-0-0--0-0-4/5--0-0-  
----------------------------------  
 
PM open G\'s 
-------------------------------  
-------------------------------  
--------------------------7-5~-  
--------4/5-----------5-7------  
-0-0-0--2/3--0-0--5-7----------  
-------------------------------  
 
on 3rd time of outro play this til fade 
--------------------------------------  
--13----12----10------13----15----10--  
--15b---14b---12b-----15b---17b---12b-  
-------------------------------------- 
-------------------------------------- 
-------------------------------------- 
 
        __ 
      =/ / 
     =/ / 
    =/_/             
     |_            
     |_|           
     |_|  any questions or corrections 
     |_|   email me, valkeyrie3@hotmail.com -Crue 
     |_| 
     |_| 
     |_|       
  / |_| 
 / | |_|  _ 
   |_| (   
  |     / / 
  | {===} |  
 /  {===}/|    
 |   ___/oo  \"I hate things that are diluted--I mean, you don\'t mix  
   |---| o )   Jack Daniels with Coke. Thats a sin!\" - nikki sixx 
  ________/ 
 

	  

Request the video "Shout At The Devil"  -  Send "Shout At The Devil" Ringtone to your Cell

there isn't a video lesson for this song

request
Full key step upFull key step up
Half key step upHalf key step up
Half key step downHalf key step down
Full key step downFull key step down
Search
auto scroll beats size up size down change color hide chords drawings
tab show chords e-chords YouTube Clip e-chords hide all tabs e-chords go to top tab