Misc

home > Misc > chords

O Holy Night Tab

Misc

Difficulty: nolevelnolevel

by alwayspeachy

tuner correct add songbook print version text version rtf version e-mail
chordsukulelecavacokeyboardtabbassdrumsharmonicsflute Guitar Pro
chords

O Holy Night

	  It needs some flourishes by a better guitarist than me.  But good enough for the Christmas Party...as long as the eggnog's made right. 

e---------------|-----------1---|--------------|--------------| 
B--------1------|-1-3-3---3---1-|---1----------|------1-------| 
G-2-2-2--------|-------3--------|-----2-0------|--2-3---3-0---| 
D---------------|---------------|---------3----|------------3-| 
A---------------|---------------|--------------|--------------| 
E---------------|---------------|--------------|--------------| 

e---------------|-----------1---|---------0----|-------1-0----|--------------| 
B--------1------|-1-3-3---3---1-|---1----------|---3-5--------|---1-1-3------| 
G-2-2-2---------|-------3-------|-----4-2------|-5---------2--|---------0----| 
D---------------|---------------|--------------|--------------|--------------| 
A---------------|---------------|--------------|--------------|--------------| 
E---------------|---------------|--------------|--------------|--------------| 

e-------1-------|---------------|-------1------|---1-0---0----|-1-3-------1-1| 
B-1-3-1-----3-1-|---1-1-3-------|-1-3-1-----1--|--------3-----|-----3-3-3----| 
G---------2-----|---------0-----|---------2----|--------------|--------------| 
D---------------|---------------|--------------|--------------|--------------| 
A---------------|---------------|--------------|--------------|--------------| 
E---------------|---------------|--------------|--------------|--------------| 

e---1-5-3---1---|----0----------|--------------|---1-3---8----|---6-5-3-1----| 
B----------1----|------3-1------|---1-3-1-1----|-------1------|--------------| 
G---------------|---------------|--------------|--------------|--------------| 
D---------------|---------------|--------------|--------------|--------------| 
A---------------|---------------|--------------|--------------|--------------| 
E---------------|---------------|--------------|--------------|--------------| 


e---0-1-3-1-----| 
B---------------|  
G---------------| 
D---------------| 
A---------------| 
E---------------| 
	  

Request the video "O Holy Night"  -  Send "O Holy Night" Ringtone to your Cell

there isn't a video lesson for this song

request
e-chords
Search
auto scroll beats size up size down change color hide chords drawings
tab show chords e-chords YouTube Clip e-chords hide all tabs e-chords go to top tab