Misc Soundtrack

home > Misc Sound... > chords

The Hobbit - Misty Mountains Cold Tab

Misc Soundtrack

Difficulty: ExpertExpert

by deivcavalcanti

tuner correct add songbook print version text version rtf version e-mail
chordsukulelecavacokeyboardtabbassdrumsharmonicsflute Guitar Pro
chords

The Hobbit - Misty Mountains Cold

	     Far over the misty mountains cold 
        Am                 Am 
e|------------0-----------------------0-----| 
B|------------1-----------------------1-----| 
G|------------2-------------------2---------| 
D|----------2-----0-2-0---------2---2-------| 
A|-------0------3-------3-2--0--------------| 
E|--0-3-------------------------------------| 

    To dungeons deep and caverns old 
          G/B                Am 
e|--------------3---------------------0-----| 
B|--------------3---------------------1-----| 
G|--------------0-----------------2---------| 
D|------------0-------0---------2---2-------| 
A|----0--2-2--------3---3-2--0--------------| 
E|--0---------------------------------------| 

   The pines were roaring on the height 
            Am               Am 
e|-------------0---------------------0------| 
B|-------------1---------------------1------| 
G|-------------2-----------------2----------| 
D|-------------2----0----------2---2--------| 
A|--------0-0-----3---3-2---0---------------| 
E|--0-0-3-----------------3-----------------| 

    The winds were moaning in the night 
           G/B                Em 
e|---------------3-----------------------0--| 
B|---------------3-----------------------0--| 
G|---------------0-------------------0------| 
D|-------------0--------0----------2---2----| 
A|----0--2-2-2--------3---3-2-0--2----------| 
E|--0---------------------------------------| 

   The fire was red, it flaming spread 
            Am  
e|---------------------0--------------------| 
B|----------------1-------------------------| 
G|--------------2---2-----------------------| 
D|----0------2------------------------------| 
A|--3-----2---------------------------------| 
E|------------------------------------------| 
  
     it flaming spread 
            G/B 
e|-------------------3----------------------| 
B|-------------------3----------------------| 
G|---------------0--------------------------| 
D|-----0-------0---0------------------------| 
A|---3----0--2------------------------------| 
E|------------------------------------------| 

   The trees like torches blazed with light   
         C       G/B     Am 
e|--------------0---3------------0---5------| 
B|--------------1---3------------1----------| 
G|--------------0---0----------2------------| 
D|--------------2---0--------2--------------| 
A|------2--3-3------2------0----------------| 
E|--0-3-----------------3-------------------| 

	  

Request the video "The Hobbit - Misty Mountains Cold"  -  Send "The Hobbit - Misty Mountains Cold" Ringtone to your Cell

there isn't a video lesson for this song

request
Full key step upFull key step up
Half key step upHalf key step up
Half key step downHalf key step down
Full key step downFull key step down
Search
auto scroll beats size up size down change color hide chords drawings
tab show chords e-chords YouTube Clip e-chords hide all tabs e-chords go to top tab