Ministérios

home > Ministério... > chords

Ministério Apascentar de Nova Iguaçu - Se a tua voz ouvir Tab

Ministérios

Difficulty: AdvancedAdvanced

by reginhog12

tuner correct add songbook print version text version rtf version e-mail
chordsukulelecavacokeyboardtabbassdrumsharmonicsflute Guitar Pro
chords

Ministério Apascentar de Nova Iguaçu - Se a tua voz ouvir

	  SOLO:  
e---------------------------------------------------- 
B-----9-10-9-----9-10-10-9----10-10/12-10-----10-9--- 
G-9-11-------9-11---------9-11-----------9p11------9-  
D---------------------------------------------------- 
A---------------------------------------------------- 
E---------------------------------------------------- 
 
e----------------------------------------------------  
b-----9-10-9-----9-10-10-9------10-10/12-10---------- 
G-9-11-------9-11----------9-11---------------------- 
D---------------------------------------------------- 
A---------------------------------------------------- 
E---------------------------------------------------- 
 

	  

Request the video "Ministério Apascentar de Nova Iguaçu - Se a tua voz ouvir"  -  Send "Ministério Apascentar de Nova Iguaçu - Se a tua voz ouvir" Ringtone to your Cell

there isn't a video lesson for this song

request
e-chords
Search
auto scroll beats size up size down change color hide chords drawings
tab show chords e-chords YouTube Clip e-chords hide all tabs e-chords go to top tab