Michael Angelo Batio

home > Michael An... > chords

A New Day Tab

Michael Angelo Batio

Difficulty: ExpertExpert

by aman_claudino

tuner correct add songbook print version text version rtf version e-mail
chordsukulelecavacokeyboardtabbassdrumsharmonicsflute Guitar Pro
chords

A New Day

	   E   S S  E    E    E    E       E    E    E    E   Q        E    E    E    E   Q      
E||---------------------|-------------------|-------------------| 
B||---------------------|--5-----6-----5----|--3--------3--5----| 
G||--4--5-4----4--5--7--|-----5-----5-------|-----4--5----------| 
D||---------7-----------|-------------------|-------------------| 
A||---------------------|--0----------------|--0----------------| 
E||---------------------|-------------------|-------------------| 


                      ^                                                    
   E    E    E    E   Q       H.              H.               E   S S  E    E    E    E     
-------------------|--0------------|--L------------|---------------------| 
--1-----3-----1----|--0------------|--L------------|---------------------| 
-----2-----2-------|--1------------|--L------------|--4--5-4----4--5--7--| 
-------------------|--2------------|--L------------|---------7-----------| 
--0----------------|--2------------|--L------------|---------------------| 
-------------------|--0------------|--L------------|---------------------| 


   E    E    E    E   Q        E    E    E    E   Q        E    E    E    E   Q      
-------------------|-------------------|-------------------| 
--5-----6-----5----|--3--------3--5----|--1-----3-----1----| 
-----5-----5-------|-----4--5----------|-----2-----2-------| 
-------------------|-------------------|-------------------| 
--0----------------|--0----------------|--0----------------| 
-------------------|-------------------|-------------------| 


  S. S. S. S. S. S. S. S.    S. S. S. S. S. S. S. S.   
--------------------------|--------------------------| 
--------------------------|--------------------------| 
--1--2--1-----1-----1-----|--1-----1-----1-----1-----| 
-----------3-----2-----0--|-----------------------3--| 
--------------------------|-----3-----2-----0--------| 
--------------------------|--------------------------| 


  S. S. S. S. S. S. S. S.    S. S. S. S. S. S. S. S.    H.             
--------------------------|--------------------------|---------------| 
--------------------------|--------------------------|---------------| 
--1-----1-----1-----1-----|--1-----1-----1-----1-----|---------------| 
-----2-----0--------------|--------------------------|---------------| 
-----------------3-----2--|-----0--------------------|---------------| 
--------------------------|-----------3-----1-----0--|--L------------| 


                                              |-3-|                         
  H.              H.                S S S S S T T T S S S S S S S S S S     
--0------------|--L------------||----------------------------------------|| 
--0------------|--L------------||---------0-1-0-1-0-----------3-------0--|| 
--1------------|--L------------||*------2-----------2-------2-------1---*|| 
--2------------|--L------------||*----2---------------2---3-------2-----*|| 
--2------------|--L------------||---0-------------------2----------------|| 
--0------------|--L------------||-------------------------------0--------|| 


                                                     ^                  
  S S S S T T T T T T T T T T T T T T T T S S S S    W                  
--------------0-1-3-1-0---------------------------|--0----------------| 
--------0-1-3-----------3-1-0-------------------3-|--0----------------| 
------2-----------------------2---------------2---|--1----------------| 
----2---------------------------0-3-2-0-----3-----|--2----------------| 
--0-------------------------------------3-2-------|--2----------------| 
--------------------------------------------------|--0----------------| 


                    ^                      ^              ^               
  T S. S S S S Q    Q     E      H           E.  S T T S  E    E    E   S S S S   
--------------------0----L--|-----------|-------------------------------| 
--------------------0----L--|-----------|-----------------------0-------| 
--------------------1----L--|-----------|--5---5-4-5-4----0-------0---0-| 
--------------------2----L--|-----------|--2-----------5--3--3------3---| 
--2-3--2-0----------2----L--|-----------|--0--------------5-------------| 
-----------3-1-0----0----L--|-----------|-------------------------------| 


  S S  E    E    E   E.  T T  E    E      S S S S S S S S S S T T S T T S S S   
-----------------------------|----------3-0-------------------------| 
------------3--5---5-3-------|--------1-----3-1-----3-5-3-3-5-3-----| 
------4--5-------------5--4--|------2-------------0-------------5-4-| 
----5------------------------|----2---------------------------------| 
---------------3-------------|--0-----------------------------------| 
--3--------------------------|------------------3-------------------| 


  Q    T T T T T T T T T T T T T T T T T T T T T S.   
--2--------------2-5-3-2---3-2----------------------| 
--3------------3---------5-----5-3-5-3-2---3-2------| 
--2----------2---------------------------4-----4-2--| 
--0--------4----------------------------------------| 
-------2-5------------------------------------------| 
----------------------------------------------------| 


  ^              ^                                             
  E.  S T T S  E    E    E   S S S S    S S  E    E    E   E.  T T  E    E     
-------------------------------|-----------------------------| 
-----------------------0-------|------------3--5---5-3-------| 
--5---5-4-5-4----0-------0---0-|------4--5-------------5--4--| 
--2-----------5--3--3------3---|----5------------------------| 
--0--------------5-------------|---------------3-------------| 
-------------------------------|--3--------------------------| 


                                         ^                   
  S S S S S S S S S S T T S T T S S S    W                   
----------3-0-------------------------|--2----------------|| 
--------1-----3-1-----3-5-3-3-5-3-----|--3----------------|| 
------2-------------0-------------5-4-|--2----------------|| 
----2---------------------------------|--0----------------|| 
--0-----------------------------------|-------------------|| 
------------------3-------------------|-------------------|| 
	  

Request the video "A New Day"  -  Send "A New Day" Ringtone to your Cell

there isn't a video lesson for this song

request
e-chords
Search
auto scroll beats size up size down change color hide chords drawings
tab show chords e-chords YouTube Clip e-chords hide all tabs e-chords go to top tab