Megadeth

home > Megadeth > chords

Peace Sells Tab

Megadeth

Difficulty: ExpertExpert

tuner correct add songbook print version text version rtf version e-mail
chordsukulelecavacokeyboardtabbassdrumsharmonicsflute Guitar Pro
chords

Peace Sells

Year: 1986 - Album: Warchest Box Set (4CDs/1DVD)

	   
Intro 
e|------------| 
B|------------| 
G|------------| 
D|-----9-----| 
A|-----7--2--| 
E|-0-0-----0--| 
   * * 
  
e|-----------------------------------------| 
B|-----------------------------------------| 
G|-----------------------------------------| 
D|-7---------------------------------------| 
A|-5----------------------------------8-7--| 
E|--------0-0-0-0-0-0-0-0-0-0-0-0-0-0-6-5--| 
          * * * * * * * * * * * * * *     
 
Intro solo: 
e|-{16}b17r16-{16}b17r16-{16}b17r16--| 
B|-----------------------------------| 
G|-----------------------------------| 
D|-----------------------------------| 
A|-----------------------------------| 
E|-----------------------------------| 
 
e|-12h15p12--12--10h13p10--10--9h11p9--9--7h9p7---7-| 
B|---------15------------13----------12--------10---| 
G|--------------------------------------------------| 
D|--------------------------------------------------| 
A|--------------------------------------------------| 
E|--------------------------------------------------| 
 
e|-5h7p5---5--3h5p3---3--2h4p2---2--1h3p1---1--0----| 
B|-------8----------6----------5----------4---------| 
G|--------------------------------------------------| 
D|--------------------------------------------------| 
A|--------------------------------------------------| 
E|--------------------------------------------------| 
 
 
Riff 1 
e|-------------------------------------| 
B|-------------------------------------| 
G|-------------------------------------| 
D|-------------------------------------| 
A|----------------6-----------------5--| 
E|-0-0-0-0-0-0-0--4--0-0-0-0-0-0-0--3--| 
   * * * * * * *     * * * * * * * 
  "What do ya mean I don't believe in God ?...." 
e|-------------------------------------| 
B|-------------------------------------| 
G|-------------------------------------| 
D|-------------------------------------| 
A|----------------6---------------8--7-| 
E|-0-0-0-0-0-0-0--4--0-0-0-0-0-0--6--5-| 
   * * * * * * *     * * * * * * 
  "Talk to him everyday..." 
 
 
Riff 2 
e|----------------------------------------| 
B|----------------------------------------| 
G|----------7--------------------7--------| 
D|-9-9-7-9--5--7-9-9----9-9-7-9--5--------| 
A|-7-7-5-7-----5-7-7----7-7-5-7-----4-5-5-| 
E|----------------------------------2-3-3-| 
             "If there's a new way..." 
e|-----------------------------| 
B|-----------------------------| 
G|-----------------------------| 
D|----------7--------------5---| 
A|-5-5-4-5--5--4-5---5-4-3-3---| 
E|-3-3-2-3-----2-3---3-2-1-----| 
                     * * * 
              "But it better work this time..." 
 
 
Play Riff 1 with this solo: 
e|-------------------------------------------------------------| 
B|---------------------------12h13-12p11p10p9--------9h12p10---| 
G|-14~~-13p12h13p12--12h13h14----------------10-9h10--------10-| 
D|-----------------14------------------------------------------| 
A|-------------------------------------------------------------| 
E|-------------------------------------------------------------| 
 
e|---------------------------------------------12---------------| 
B|---10p9------9-------------------------15~~----15-12----------| 
G|-9------10p9---10p9---------------------------------14-12b13-| 
D|--------------------10p9p7---7p6------------------------------| 
A|---------------------------8-----8p7--------------------------| 
E|--------------------------------------------------------------| 
 
End solo 
 
Play Riff 1   "What do ya mean I hurt your feelings ?" 
Here are the solos: 
 
#1 
e|-----------------------------| 
B|-----------------------------| 
G|-----------------------------| 
D|-{wah}-----------------------| 
A|--5p3-6p3--0---*tremolo dive-| 
E|----------(5)r3--------------| 
  "...didn't know ya had any feelings..." 
 
#2 
e|-------18--------18~~--| 
B|-17b18-----17b18-------| 
G|-----------------------| 
D|-----------------------| 
A|-----------------------| 
E|-----------------------| 
  "...just not your kind..." 
 
#3 
e|------------------------------| 
B|-14h15---------12-13b15~~~~~-| 
G|--a--------12~----------------| 
D|-------14~--------------------| 
A|------------------------------| 
E|------------------------------| 
  "...of the United States of America ?" 
 
#4 
e|-----------------------------------------------| 
B|-15--------------------------------------------| 
G|-14b15--14p12---15-14p12-----------------------| 
D|-------------14---------14-12------------------| 
A|------------------------------14-12-10-12-10~~-| 
E|-----------------------------------------------| 
  "...we, the people, right ?" 
 
End solos 
 
 
Play Riff 2   "If there's a new way..." 
 
 
Riff 3 
e|-----------------------------------------| 
B|-----------------------------------------| 
G|-----------------------------------------| 
D|-----5p4h5-----4p2h4------2p0h2----------| 
A|-----------------------------------5p4h5-| 
E|-0-0-------0-0-------0-0-------0-0-------| 
   * *       * *       * *       * *    
e|-------------------------------------------| 
B|-------------------------------------------| 
G|-------------------------------------------| 
D|-------------------------------------------| 
A|-----4p2h4-----2p0h2-----------------------| 
E|-0-0-------0-0-------0-0--5p3h5-0-0--3p2h3-| 
   * *       * *       * *        * * 
 
 
Riff 3a 
Guitar 1 
e|-----------------------------------------| 
B|-----------------------------------------| 
G|-----------------------------------------| 
D|-----5p4h5-----4p2h4-----2p0h2-----------| 
A|-----------------------------------5p4h5-| 
E|-0-0-------0-0-------0-0-------0-0-------| 
   * *       * *       * *       * *    
e|-----------------------------------------| 
B|-----------------------------------------| 
G|-----------------------------------------| 
D|-----------------------------------------| 
A|-----4p2h4-----2p0h2----------------/6-5-| 
E|-0-0-------0-0-------0-0--5p3h5-0-0-/4-3-| 
   * *       * *       * *        * * 
 
Guitar 2 
e|-----------------------------------------| 
B|-----------------------------------------| 
G|-----4p2h4-----2p0h2---------------------| 
D|-------------------------5p4h5-----4p2h4-| 
A|-----------------------------------------| 
E|-0-0-------0-0-------0-0-------0-0-------| 
   * *       * *       * *       * * 
e|-----------------------------------------| 
B|-----------------------------------------| 
G|-----------------------------------------| 
D|-----2p0h2-------------------------------| 
A|---------------5p4h5-----4p2h4------/6-5-| 
E|-0-0-------0-0-------0-0--------0-0-/4-3-| 
   * *       * *       * *        * * 
 
 
Riff 4  (Solo Rhythm)             
e|---------------------------------| 
B|---------------------------------| 
G|---------------------------------| 
D|---------------------------------|         --------| 
A|-4-------------5-------4-----5-4-|                 | 
E|-2-2-2-2-2-2-2-3-3-3-3-2-2-2-3-2-|                 | 
     * * * * * *   * * *   * *                       | 
Guitar 1                                             | 
e|----------------------------------------|          | 
B|----------------------------------------|          | 
G|----------------------------------------|          | 
D|-----5p4h5-----4p2h4-----2p0h2----------|          |--- Play 3x 
A|-----------------------------------/6-5-|          | 
E|-0-0-------0-0-------0-0-------0-0-/4-3-|          | 
   * *       * *       * *       * *                 | 
Guitar 2                                             | 
e|----------------------------------------|          | 
B|----------------------------------------|          | 
G|-----4p2h4-----2p0h2--------------------|          | 
D|-------------------------5p4h5----------|   -------| 
A|-----------------------------------/6-5-| 
E|-0-0-------0-0-------0-0-------0-0-/4-3-| 
   * *       * *       * *       * * 
 
Final time 
e|----------------------------------------------| 
B|----------------------------------------------| 
G|----------------------------------------------| 
D|-----------------------------7-8-9------------| 
A|-4-------------5-------4-----5-6-7-{let ring}-| 
E|-2-2-2-2-2-2-2-3-3-3-3-2-2-2------------------| 
     * * * * * *   * * *   * * 
 
Solos: 
 
#1 
e|----10-------------------------------------------| 
B|-12----12-12-10-----------8-10-12-8--------------| 
G|----------------12---10-------------9--7---------| 
D|-------------------9----9----------------9-7-5b6-| 
A|-------------------------------------------------| 
E|-------------------------------------------------| 
 
#2 
e|----------------------------------------------| 
B|----------------------------------------------| 
G|-------------------------------54p2h4p2------| 
D|------------------2---4p2----------------4-2~-| 
A|------2h4-2h4-2h4---4-----4-2-----------------| 
E|-2--2-----------------------------------------| 
 
#3 
e|-14-15-19-14-15-19--15-15-16-16-15b16-16b17-| 
B|--------------------------------------------| 
G|--------------------------------------------| 
D|--------------------------------------------| 
A|--------------------------------------------| 
E|--------------------------------------------| 
 
e|-17-17b19~~-----15------------------------------------| 
B|-------------17---14-15b17~~--15b17~~---15------------| 
G|-------------------------------------------16-14-12~~-| 
D|------------------------------------------------------| 
A|------------------------------------------------------| 
E|------------------------------------------------------| 
 
#4 
e|-------------19----------------19----------| 
B|-19h22p19h22----22p19h22p19-22----22p19h22-| 
G|-------------------------------------------| 
D|-------------------------------------------| 
A|-------------------------------------------| 
E|-------------------------------------------| 
 
e|-------19----------------19----------------------------------| 
B|-19h22----22p19h22-19h22----22p19h22p19----------------------| 
G|----------------------------------------21-19h21-18h19-16~~~-| 
D|-------------------------------------------------------------| 
A|-------------------------------------------------------------| 
E|-------------------------------------------------------------| 
 
End solos 
 
"Can you put a price on peace ? "      
                                  
Riff 5 
Guitar 1           x12 
e|-------------------| 
B|-------------------| 
G|-------------------| 
D|--------5----------| 
A|-7--5-7---0-7-5-00-| 
E|-------------------| 
            *     ** 
 
Guitar 2 (comes in after awhile) 
e|-------------------------------| 
B|-------------------------------| 
G|-------------------------------| 
D|--9-------12------11-----------| 
A|--7----xx-10---xx--9---xx-9----| 
E|--0----xx-10---xx--9---xx-7----| 
 
e|---------------------------------| 
B|---------------------------------| 
G|---------------------------------| 
D|----9-------12------11-----------| 
A|-xx-7----xx-10---xx--9---xx-9----| 
E|-xx-0----xx-10---xx--9---xx-7----| 
 
 
Riff 6 
e|-----------------------| 
B|-----------------------| 
G|-----------------------| 
D|---------5-------7/8---| 
A|-7~--5-7---0-7-5-------| 
E|-----------------------| 
             * 
    "Peace....peace sells..." 
 
Riff 7 
Guitar 1 
e|-----------------------| 
B|-----------------------| 
G|-----------------------| 
D|---------5-------7/8---| 
A|-7~--5-7---0-7-5-------| 
E|-----------------------| 
             * 
  "Peace sells, but who's buying ?" 
 
Guitar 2 
e|-----------------------| 
B|-----------------------| 
G|---------7-------9/10--| 
D|-9~--7-9---0-9-7-------| 
A|-----------------------| 
E|-----------------------| 
             * 
 
Play Riff 6   Solo Rhythm 
 
Solo 
e|-----------------------12-------------12----------------| 
B|-8b9-10b11-12b13-15b16----15-12----12----15-12----------| 
G|--------------------------------15-------------15-14-12-| 
D|--------------------------------------------------------| 
A|--------------------------------------------------------| 
E|--------------------------------------------------------| 
 
E|-15b16-15b16-15b16-15b16~-12--12h13p12--------12h13p12---------| 
B|----------------------------15--------15-12-15--------15-12-15-| 
G|---------------------------------------------------------------| 
D|---------------------------------------------------------------| 
A|---------------------------------------------------------------| 
E|---------------------------------------------------------------| 
 
E|-12h13p12----------------------------12-15b16-17b18-20b21-22b23~-| 
B|----------15-13-12----------12-13-15-----------------------------| 
G|-------------------14-12-14--------------------------------------| 
D|-----------------------------------------------------------------| 
A|-----------------------------------------------------------------| 
E|-----------------------------------------------------------------| 
 
E|-22-19-22-19----------------------------| 
B|-------------22-20b21-20b21-20b21-20~~-| 
G|----------------------------------------| 
D|----------------------------------------| 
A|----------------------------------------| 
E|----------------------------------------| 
 
End Solo 
 
Play Riff 7   "Peace sells, but who's buying?" 
Play Riff 6   "Peace sells, but who's buying?" 
 
 
Riff 8 
e|---------------------------------------------| 
B|---------------------------------------------| 
G|---------------------------------------------| 
D|----------------------12-12-12-12-1111-12-11-| 
A|-6-5--4-3---3-4-3---3-10-10-10-10--9-9-10--9-| 
E|-4-3--2-1-0-1-2-1-0-1------------------------| 
   * *  * * * * * * * * 
     "No....no no no no..." 
e|------------------------------------| 
B|------------------------------------| 
G|------------------------------------| 
D|---------5-------7/8----------5-----| 
A|-7~--5-7---0-7-5------7~--5-7---0-7-| 
E|------------------------------------| 
             *                    * 
Final time 
e|------------------------------------------------| 
B|------------------------------------------------| 
G|------------------------------------------------| 
D|----------------------12-12-12-12-1111-12-11-9-| 
A|-6-5--4-3---3-4-3---3-10-10-10-10--9-9-10--9-7-| 
E|-4-3--2-1-0-1-2-1-0-1---------------------------| 
   * *  * * * * * * * * 
      "Peace sells.....                  ....ahhh" 
 
 
Ending solo 
e|---------------------------------------------------------------| 
B|------------------------------------------------------12-14-15-| 
G|---------------------------------------------11-12-14----------| 
D|-------------------9-11-12-11-12----11-12-14-------------------| 
A|-7h9h10p7-7h9h10p7---------------14----------------------------| 
E|---------------------------------------------------------------| 
 
e|------------------------------------12h15-17p15h17---------| 
B|-12b15r12-10--10----12-----9--12h14------------------------| 
G|------------12----------------------------------------16---| 
D|-----------------------------------------------------------| 
A|-----------------------------------------------------------| 
E|-----------------------------------------------------------| 
 
e|----------------------------------------------------------------| 
B|-15-17b18---17--17p15-17p15----17p15-----17p15----17p15-17p15---| 
G|---------------------------16--------16-------16-------------16-| 
D|----------------------------------------------------------------| 
A|----------------------------------------------------------------| 
E|----------------------------------------------------------------| 
 
e|----------------------------------------------------------19--22--22b23~~-| 
B|-15h17-20p17-20p17--17h20p17-17-20b21-20b21-20b21-20b21-20----------------| 
G|------------------19------------------------------------------------------| 
D|--------------------------------------------------------------------------| 
A|--------------------------------------------------------------------------| 
E|--------------------------------------------------------------------------| 
 
End solo 
 
 
 
 
_______________________________________________________ 
Contribuição: EDUARDO COUTINHO(WWW.STELA43@BOL.COM.BR) 

	  

Request the video "Peace Sells"  -  Send "Peace Sells" Ringtone to your Cell

there isn't a video lesson for this song

request
e-chords
Search
auto scroll beats size up size down change color hide chords drawings
tab show chords e-chords YouTube Clip e-chords hide all tabs e-chords go to top tab