Los Rodriguez

home > Los Rodrig... > chords

La Milonga Del Marinero Y El Capitán Tab

Los Rodriguez

Difficulty: ExpertExpert

by hebealmeida

tuner correct add songbook print version text version rtf version e-mail
chordsukulelecavacokeyboardtabbassdrumsharmonicsflute Guitar Pro
chords

La Milonga Del Marinero Y El Capitán

(Ariel Rot)

	  Solo de Guitarra 

        B7                         Em 
E------------------------------------------------------ 
B-----------------------5/7------------------------6/8- 
G-4-3-4-5-4-3-4-5-4-3-4------4-3-4-5-4-3-4-5-4-3-4----- 
D------------------------------------------------------ 
A------------------------------------------------------ 
E------------------------------------------------------ 

        B7                          Em  
E------------------------------------------------------ 
B-8-8-8-7--5--4^5^4------------------------------------ 
G-------------------5-4--3-2----2-3-2------------------ 
D-----------------------------5-------5-2---5-2---2---- 
A-----------------------------------------5-----5------ 
E------------------------------------------------------ 

   B7                          Em 
E----7------5------3-2--------------------------------- 
B-----------------------5-4-5-4^5-----5-4-5-5-----5---- 
G-/8----8\6----6\4-----------------4----------3^4------ 
D------------------------------------------------------ 
A------------------------------------------------------ 
E------------------------------------------------------ 

            C                 B7 
E----------------------------------------------| 
B----------------------------------------------| 
G-4^2^0------------0-3-3--3-2-0----------------| 
D-------2-0------2--------------4--1-----------| 
A-----------3--3----------------------3-2------| 
E----------------------------------------------| 

Les aseguro que este es el solo original...  es buenisimo.
	  

Request the video "La Milonga Del Marinero Y El Capitán"  -  Send "La Milonga Del Marinero Y El Capitán" Ringtone to your Cell

there isn't a video lesson for this song

request
Full key step upFull key step up
Half key step upHalf key step up
Half key step downHalf key step down
Full key step downFull key step down
e-chords
Search
auto scroll beats size up size down change color hide chords drawings
tab show chords e-chords YouTube Clip e-chords hide all tabs e-chords go to top tab