Los Lobos

home > Los Lobos > chords

la balada del pistolero Tab

Los Lobos

Difficulty: ExpertExpert

by gruol

tuner correct add songbook print version text version rtf version e-mail
chordsukulelecavacokeyboardtabbassdrumsharmonicsflute Guitar Pro
chords

la balada del pistolero

	  
  
Intro  
  
                                        B  
e|--------7-7--7-7--8-7--7----8-7--7--------|  
B|------8-8-8--8-8--8-8--8-8--8-8--8-8--10--| 
G|----9--------------------9---------9--11--|  
D|--9---------------------------------------|  
A|------------------------------------------|  
E|------------------------------------------|  
  
                                       Em  
e|-------5-5--5-5--7-5--5-5-7--5-5----------|  
B|-------7-7--7-7--7-7--7-7-7--7-7--7--8----|  
G|----8-----------------------------8--9----|  
D|--9---------------------------------------|  
A|------------------------------------------|  
E|------------------------------------------|  
  
  
Verso 1  
  
(Em)                                         B  
Soy un hombre muy honrado, que me gusta lo mejor(riff 1)  
                                             Em  
A mujeres no me faltan, ni el dinero, ni el amor(riff 2)  
                                              B  
Jineteando en mi caballo, por la sierra yo me voy(riff 3)  
                                             Em  
Las estrellas y la luna ellas me dicen donde voy     
   
  
    riff 1       riff 2                riff 3  
e|------------|--8-7-5------|------5-8--7---5-8--7------5-8--7--|  
B|---------7--|--------8-5--|--5-8------------------------------|  
G|------8-----|-------------|-----------------------------------|  
D|----9-------|-------------|-----------------------------------|  
A|--9---------|-------------|-----------------------------------|  
E|------------|-------------|-----------------------------------|  
  
  
  Estribillo  
(Ay, ay, ay, ay.......)  
  
    Am             Em           B            Em  
e|--8-------8----8-7------7---7-5------5---5-3------3---3-------|  
B|----10------10-----8------8-----7------7-----5------5---------|  
G|-------9-------------9------------8------------4--------------|  
D|--------------------------------------------------------------|  
A|--------------------------------------------------------------|  
E|--------------------------------------------------------------|  
  
  
     Am             Em           B            Em  
e|--8-------8----8-7------7---7-5------5------------------------|  
B|----10------10-----8------8-----7------8-7-5------------------|  
G|-------9-------------9------------8---------------------------|  
D|--------------------------------------------------------------|  
A|--------------------------------------------------------------|  
E|--------------------------------------------------------------|  
  
  
  Interlude  
             
                            B  
e|------7-7--7-7--8-7--7----8-7--7--------|  
B|----8-8-8--8-8--8-8--8-8--8-8--8-8--10--|  
G|--9--------------------9---------9--11--|  
D|----------------------------------------|  
A|----------------------------------------|  
E|----------------------------------------|  
  
   
                                      Em  
e|-------5-5--5-5-5h7--5-5--5--7-5--5--------|  
B|-------7-7--7-7-7-7--7-7--7--7-7--7--------|  
G|----8-------------------------------7-8----|  
D|--9---------------------------------8-9----|  
A|-------------------------------------------|  
E|-------------------------------------------|  
  
  
  Verso 2  
  
                                            B  
Me gusta tocar guitarra, me gusta cantar el son(riff 1)  
                                         Em  
Mariachi me acompaña cuando canto mi canción(riff 2)  
  
                                                        B  
Me gusta tomar mis copas(riff 3), agua ardiente es lo mejor   
                                             Em  
Tambien el tequila blanco con su sal le da sabor  
  
  
   riff 1       r. 2    riff 3                   durante 'blanco'   
e|--7--7\--    --7---|--8-7-5------------7-7--|-------------------|  
B|--7--7\--    --8---|--------8-5--5-5-5------|--7h8p7--5-3-------|  
G|--8--8\-- x4 --9---|------------------------|--------------5-4--|  
D|--9--9\--    --9---|------------------------|-------------------|  
A|---------    --7---|------------------------|-------------------|  
E|---------    --7---|------------------------|-------------------|  
  
  
(Estribillo)  
  
  
  Solo (un poco difícil, toma el ritmo)    
  
  Em                                                  Em  
e|--7-----7-12-7----7---7-11-7----7---7-11-7----7---7-12-7----7---7-12-7----7----|  
B|-----10--------10---0--------10---0--------10---0--------10---0--------10---0--|  
G|-------------------------------------------------------------------------------|  
D|-------------------------------------------------------------------------------|  
A|-------------------------------------------------------------------------------|  
E|-------------------------------------------------------------------------------|  
  
      B                             Em  
e|--7-11-7----7---11----7---11----7---12----7---12----7---12---10----------------|  
B|---------10---0----10---0----10---0----10---0----10---0----7-------------------|  
G|-------------------------------------------------------------------------------|  
D|-------------------------------------------------------------------------------|  
A|-------------------------------------------------------------------------------|  
E|-------------------------------------------------------------------------------|  
  
    B                     Em                          B                           Em  
e|--10-8-10-8-7-8-7-5-7-5-3-5-3-2-3-2---2--------------------------------------------|  
B|------------------------------------5---3-5-3-1-3-1-0------0-----------------------|  
G|--------------------------------------------------------2-----5-4-2-0--------------|  
D|-----------------------------------------------------------------------5-4-2-0-----|  
A|--------------------------------------------------------------------------------2--|  
E|-----------------------------------------------------------------------------------|  
  
          B             Em            B                   Em  
e|---------------------------------------------7--5--3--2-0----------------------|  
B|--0--0--4-5-7---0--0--5-7-8---0--0--4-5-7--0------------0----------------------|  
G|---------------------------------------------7--5--3--2-0----------------------|  
D|--------------------------------------------------------2----------------------|  
A|--------------------------------------------------------2----------------------|  
E|--------------------------------------------------------0----------------------|  
  
  
  (golpeando la guitarra)  
  
                                            B  
Me gusta tocar guitarra, me gusta cantar el son(riff 1)  
                                          Em  
Mariachi me acompaña cuando canto mi canción  
  
                                                       B  
Me gusta tomar mis copas(riff 2) agua ardiente es lo mejor  
                                              Em  
tambien el taquila blanco, con su sal le da sabor  
  
    riff 1              riff 2               durante 'sal'  
e|--5h7p5h7-5------|------7------7-5-8--7--|--3-2-0-2------|  
B|------------7-4--|--5-8---8-5------------|----------5----|  
G|-----------------|-----------------------|---------------|  
D|-----------------|-----------------------|---------------|  
A|-----------------|-----------------------|---------------|  
E|-----------------|-----------------------|---------------|  
  
  
   Estribillo   
  
    Am           Em         B          Em  
e|-------8--8--------7--7-------5--5-------3--3---------|  
B|----10-10-10-----8-8--8-----7-7--7-----5-5--5---------|  
G|--9------------9----------8----------4----------------| (2x)  
D|------------------------------------------------------|  
A|------------------------------------------------------|  
E|------------------------------------------------------|  
  
     Am          Em        B         Em  
e|-----8---8-------7--7------5--5------3--3-------------|  
B|-----10--10------8--8------7--7------5--5-------------|  
G|---9-9---9-----9-9--9----8-8--8----4-4--4-------------| (2x)  
D|------------------------------------------------------|  
A|------------------------------------------------------|  
E|------------------------------------------------------|  
  
                  Em  
  ......de mi corazooooooooooooooooon!  
  
 en esta parte tienes que variar tremolo:  
  
e|-12121212-12-12-12-12-12-12-1212121212121212--12------|  
B|------------------------------------------------------|
G|------------------------------------------------------|
D|------------------------------------------------------|
A|------------------------------------------------------|
E|------------------------------------------------------|    
  


	  

Request the video "la balada del pistolero"  -  Send "la balada del pistolero" Ringtone to your Cell

there isn't a video lesson for this song

request
Full key step upFull key step up
Half key step upHalf key step up
Half key step downHalf key step down
Full key step downFull key step down
Search
auto scroll beats size up size down change color hide chords drawings
tab show chords e-chords YouTube Clip e-chords hide all tabs e-chords go to top tab