Los Indios Tacunau

home > Los Indios... > chords

Quiero Ser Tu Sombra Tab

Los Indios Tacunau

Difficulty: AdvancedAdvanced

by carlluz

tuner correct add songbook print version text version rtf version e-mail
chordsukulelecavacokeyboardtabbassdrumsharmonicsflute Guitar Pro
chords

Quiero Ser Tu Sombra

	  Quiero ser tu sombra  




Bueno espero que les sirva 

E- --------------8---8---8--10--8--7-6-7 
B---5-6-5-4-5----5---5------------------ 
G- ------------------------------------- 


E- ------------7--7--7-8-7-5-4-5-------- 
B---7-9-7-6-7---7--7-------------------- 
G- ------------------------------------- 


E--- ---------5---5-4-3--3--3-1-0-1----- 
B--- 5-6-5-4-5--5------5---5------------ 
G- ------------------------------------- 


e---1-0-----------------0-1-0---------5- 
B- ------3-1-0------0-1-3------3-1-0---5 
G- ------------2-1-2----------------2?5- 



e---1-0-----------------0-1-0--------5------------------------------ 
B- ------3-1-0------0-1-3-----3-1-0---5----------------------------- 
G- ------------2-1-2----------------2-5----------------------------- 


e---12-10-0-/-12-10-0-/-12-10-0-/-12-10-0-/-12-10-0---- 
B- ---------------------------------------------------- 
G- ---------------------------------------------------- 

e---10-8-0-/-10-8-0-/-10-8-0-/-10-8-0-/-10-8-0--------- 
B- ---------------------------------------------------- 
G- ---------------------------------------------------- 

e---8-7-0-/-8-7-0-/-8-7-0-/-8-7-0-/-8-7-0-------------- 
B- ---------------------------------------------------- 
G- ---------------------------------------------------- 

e---7-5-0-/-7-5-0-/-7-5-0-/-7-5-0-/-7-5-0-------------- 
B- ---------------------------------------------------- 
G- ---------------------------------------------------- 

e---5-3-0-/-5-3-0-/-5-3-0-/-5-3-0-/-5-3-0-------------- 
B- ---------------------------------------------------- 
G- ---------------------------------------------------- 


e---1-0-----------------0-1-0--------5------------------------------ 
B- ------3-1-0------0-1-3-----3-1-0---5----------------------------- 
G- ------------2-1-2----------------2-5----------------------------- 


e---12-10-0-/-12-10-0-/-12-10-0-/-12-10-0-/-12-10-0---- 
B- ---------------------------------------------------- 
G- ---------------------------------------------------- 

e---10-8-0-/-10-8-0-/-10-8-0-/-10-8-0-/-10-8-0--------- 
B- ---------------------------------------------------- 
G- ---------------------------------------------------- 




e---8-7-0-/-8-7-0-/-8-7-0-/-8-7-0-/-8-7-0--- 
B- ----------------------------------------- 
G- ----------------------------------------- 

e---7-5-0-/-7-5-0-/-7-5-0-/-7-5-0-/-7-5-0---- 
B- ------------------------------------------ 
G- ------------------------------------------ 

e---5-3-0-/-5-3-0-/-5-3-0-/-5-3-0-/-5-3-0---- 
B- ------------------------------------------ 
G- ------------------------------------------ 
	  

Request the video "Quiero Ser Tu Sombra"  -  Send "Quiero Ser Tu Sombra" Ringtone to your Cell

there isn't a video lesson for this song

request
e-chords
Search
auto scroll beats size up size down change color hide chords drawings
tab show chords e-chords YouTube Clip e-chords hide all tabs e-chords go to top tab