Little Texas

home > Little Tex... > chords

God Blessed Texas Tab

Little Texas

Difficulty: ExpertExpert

tuner correct add songbook print version text version rtf version e-mail
chordsukulelecavacokeyboardtabbassdrumsharmonicsflute Guitar Pro
chords

God Blessed Texas

	  Tabbed by Guitarviper 
 
Intro: 
 (tremolo pick) 
--5--5--5--5-----5--------------------------------------------- 
--5--5--5--5-----5--14-----14----14-15------------------------- 
------------------------14----14-------16br-16br-16br-16br-14-- 
--------------------------------------------------------------- 
--------------------------------------------------------------- 
--------------------------------------------------------------- 
*with slide throughout*                                        gradual slide 
-------------------17------17\15-x-12----------------------------------- 
-------------15/17--------------------12/14----------------------------- 
--14-(14)\-------------14-------------------14----14\12----14/--\------- 
--14-(14)\----------------------------------------------14-------------- 
------------------------------------------------------------------------ 
------------------------------------------------------------------------ 
 
 
Solo (Bridge): 
*with slide throughout*  
--17-17-17-17-17-----------------------17-17-----17-17\----17------------------------- 
-----------------17/19-----------10/17-------/17-------/17-17--17\15-13/14------------ 
-----------------------19--(19)\-------------------------------------------14--(14)\-- 
-------------------------------------------------------------------------------------- 
-------------------------------------------------------------------------------------- 
-------------------------------------------------------------------------------------- 
 
--8/10----------------------------5---3------------------ 
--------10\6/7-----------------/5---5---5\4/5---5-------- 
---------------7\--5\4---7-\-5----------------5---5\4---- 
-----------------------7------------------------------7-- 
--------------------------------------------------------- 
--------------------------------------------------------- 
 
------12----10------9---7----------------------------------------------------- 
--/12----12----12\9---9---9\7-----------------13\12--------------------------- 
------------------------------9\7----9----/12-------14-12\11--------------14-- 
----------------------------------/9-------------------------14---10\9-------- 
-----------------------------------------------------------------------12----- 
------------------------------------------------------------------------------ 
 
 
Outro: 
--17\15---12----------------------------------------- 
--------x----12/14----------------------------------- 
-------------------14--14\12----12\11-11\9----------- 
-----------------------------14-------------10\9-7~~~ 
----------------------------------------------------- 
----------------------------------------------------- 
 
 
 
This is an example of a fill used throughout the song: 
*with slide throughout*  
--------17--17\15-12-12---------------------------------- 
--15/17-----------------12/14------------------13/14----- 
------------------------------14------14\12----------14-- 
--------------------------------------------14----------- 
--------------------------------------------------------- 
--------------------------------------------------------- 
	  

Request the video "God Blessed Texas"  -  Send "God Blessed Texas" Ringtone to your Cell

there isn't a video lesson for this song

request
e-chords
Search
auto scroll beats size up size down change color hide chords drawings
tab show chords e-chords YouTube Clip e-chords hide all tabs e-chords go to top tab