Limp Bizkit

home > Limp Bizki... > chords

Faith Tab

Limp Bizkit

Difficulty: nolevelnolevel

by paulantunes

tuner correct add songbook print version text version rtf version e-mail
chordsukulelecavacokeyboardtabbassdrumsharmonicsflute Guitar Pro
chords

Faith

	  

Intro (Clean)  
 
C#-------------------------------------------------------------  
G#-----7-x-7-x-7-x-x-7-7--x-x--7-x-7-x-7-x-x-7-7--x-x----------  
F-----7-x-7-x-7-x-x-7-7--x-x--7-x-7-x-7-x-x-7-7--x-x----------  
B------7-x-7-x-7-x-x-7-7--x-x--7-x-7-x-7-x-x-7-7--x-x----------  
F#-----5-x-5-x-5-x-x-5-5--x-x--5-x-5-x-5-x-x-5-5--x-x----------  
B--------------------------------------------------------------  


Verse 1 (00:10) (Clean)  
 
C#-------------------------------------------------------------  
G#-----7-x-7-x-7-x-x-7-7--x-x--7-x-7-x-7-x-x-7-7--x-x----------  
F-----7-x-7-x-7-x-x-7-7--x-x--7-x-7-x-7-x-x-7-7--x-x----------  
B------7-x-7-x-7-x-x-7-7--x-x--7-x-7-x-7-x-x-7-7--x-x----------  
F#-----5-x-5-x-5-x-x-5-5--x-x--5-x-5-x-5-x-x-5-5--x-x----------  
B--------------------------------------------------------------  


 
C#-------------------------------------------------------------  
G#-----5-x-5-x-5-x-x-5-5--x-x--7-x-7-x-7-x-x-7-7--x-x----------  
F-----5-x-5-x-5-x-x-5-5--x-x--7-x-7-x-7-x-x-7-7--x-x----------  
B------5-x-5-x-5-x-x-5-5--x-x--7-x-7-x-7-x-x-7-7--x-x----------  
F#-----3-x-3-x-3-x-x-3-3--x-x--5-x-5-x-5-x-x-5-5--x-x----------  
B--------------------------------------------------------------  


Pre-Chorus (00:31) (Clean w/ Phaser)  
 
C#-------------------------------------------------------------  
G#-------------------------------------------------------------  
E-----------9------------------7-----------5h7-----------------  
B--------5------5-----------7--------------5h7--------7--------  
F#----3------------3--/--5------------5----------5-------------  
B--------------------------------------------------------------  


 
C#----------------------------------------------------5--------  
G#-----------------------2---------2h3p2-----------------------  
E---------------2--------------------------2-------------------  
B----------2------------------2----------------2---------------  
F#----0--------------------------------------------------------  
B--------------------------------------------------------------  


Chorus (00:51) (Distortion)         x3  
 
C#-----------------------------------|-------------------------  
G#-----------------------------------|-------------------------  
E-----7p5--------------7p5--------7b-|----7p5-------------7p5--  
B-----7p5--------------7p5-----------|----7p5-------------7p5--  
F#----5----------------5----------5b-|----5---------------5----  
B----------0--0--0--0-------0--0-----|--------0--0--0--0-------  

P.M.       -  -  -  -       -  -              -  -  -  -  

Verse 2 (1:02) (Distortion)  
 
C#-------------------------------------------------------------  
G#----------------7----------------------7---------------------  
E-----7---7---7---7-----7b---7---7---7---7------7--7br7--------  
B-----7---7---7--------------7---7---7-------------------------  
F#----5---5---5--------------5---5---5-------------------------  
B-------0---0---0----0---------0---0---0-----0-----------------  

P.M.    -   -   -    -         -   -   -     -  

 
C#-------------------------------------------------------------  
G#----------------5--------------------------7-----------------  
E-----5---5---5---5-----5---5----7---7---7---7------7b---------  
B-----5---5---5------------------7---7---7---------------------  
F#----3-3-3-3-3-3---3-3---3---3--5---5---5---------------------  
B----------------------------------0---0---0-----0-------------  

P.M.    -   -   -   - -   -   -    -   -   -     -  

Interlude (1:52) (Distorted)  
 
C#-------------------------------------------------------------  
G#-------------------------------------------------------------  
E--------------------------------------------------------------  
B--------------------------------------------------------------  
F#----0-0---0-0--0-0-------1--1--1--1--0--0--------------------  
B-----0-0---0-0--0-0-------1--1--1--1--0--0--------------------  

P.M. - - - - - - - - - - - - - - - -|  

Outro (2:18) (Distorted)  
 
C#-------------------------------------------------------------  
G#-------------------------------------------------------------  
E--------------------------------------------------------------  
B--------------------------------------------------------------  
F#----0-0---1-0---0-0-------1--0-----0-------------------------  
B-----0-0---1-0---0-0-------1--0-----0-------------------------  

P.M. - - - - - - - - - - - - - - - - - - - - - - - - - - - - -|  



 
	  

Request the video "Faith"  -  Send "Faith" Ringtone to your Cell

there isn't a video lesson for this song

request
Search
auto scroll beats size up size down change color hide chords drawings
tab show chords e-chords YouTube Clip e-chords hide all tabs e-chords go to top tab