Led Zeppelin

home > Led Zeppelin

The Song Remains The Same Tab

Led Zeppelin

Difficulty: ExpertExpert

tuner correct add songbook print version text version save to e-mail
chordsukulelecavacokeyboardtabbassdrummharmonicsflute Guitar Pro
chords

The Song Remains The Same

	   
                                                                                 
E||-------2--------------|-------2--------------|--2----2----------------------| 
B||-------3--------------|-------3--------------|--3----3----------------------| 
G||-------0--------------|-------0--------------|--2----2----------------7-----| 
D||-------2--------------|-------2--------------|--0----0--------7-9-7-----9-7-| 
A||--0-------------------|--0-----------3b--3b--|----------5h7/9-------9-------| 
E||--------------3b--3b--|----------------------|------------------------------| 
 
 
                                                            
--------------------------|--7----------------------------| 
--7-----------------------|-------------------------------| 
----7-----7-6-7-------9/--|--11--7---7-9-7---7--x---7--9b-| 
------9-7-----7-----------|--------9-------9------9-------| 
--------------------------|-------------------------------| 
--------------------------|-------------------------------| 
 
 
                                                                          
---7------10-7-----------------------|----------------------------------| 
-----10-7------10-7-10-7-------------|--------------------------0---0---| 
-------------------------9-7-9-7-----|--9---7-9-7---9---7-9-7---9---7-9-| 
---------------------------------9-7-|----9-------9---9-------9---9-----| 
-------------------------------------|----------------------------------| 
-------------------------------------|----------------------------------| 
 
 
                                                                        
-------------------------------|-------12/14-----14/15----17----17----| 
------0---0--------------------|--------------------------------------| 
--7---9---7-9-7---9---7-9-7/---|--12----------14-------16/17-------17/| 
----9---9-------9---9----------|--------------------------------------| 
-------------------------------|--------------------------------------| 
-------------------------------|--------------------------------------| 
 
 
                                                                               
-----15--------14--------12--------10----|--------8----------8----------8----| 
-----------------------------------------|-----------------------------------| 
--16----16/-14----14/-12----12/-10----9/-|--10---------10---------10---------| 
-----------------------------------------|-----------------------------------| 
-----------------------------------------|-----------------------------------| 
-----------------------------------------|-----------------------------------| 
 
 
                                                                   
--7------------10----12----|--14----12----10----12----10----9----| 
---------------------------|-------------------------------------| 
--7------------10----12----|--14----12----10----12----10----9----| 
---------------------------|-------------------------------------| 
---------------------------|-------------------------------------| 
---------------------------|-------------------------------------| 
 
 
                                     
--10----9----7----9----7----5--10/-| 
-----------------------------------| 
--10----9----7----9----7----6--10/-| 
-----------------------------------| 
-----------------------------------| 
-----------------------------------| 
 
 
                                               
--12-----10------9------10-------12-------14-| 
---------------------------------------------| 
--12--10----10/9---9/10----10/12----12/14----| 
---------------------------------------------| 
---------------------------------------------| 
---------------------------------------------| 
 
 
                                                    
--------12-------10-------12-------14-------12----| 
--------------------------------------------------| 
--14/12----12/10----10/12----12/14----14/12----12/| 
--------------------------------------------------| 
--------------------------------------------------| 
--------------------------------------------------| 
 
 
                                                   
-----10-------12-------14-------12-------10------| 
-------------------------------------------------| 
--10----10/12----12/14----14/12----12/10----10/9-| 
-------------------------------------------------| 
-------------------------------------------------| 
-------------------------------------------------| 
 
 
                                                                             
--9------10------9------10------9-----7-|------9-----7-----9-----7-----5---| 
----------------------------------------|----------------------------------| 
----9/10----10/9---9/10----10/9---9/7---|--7/9---9/7---7/9---9/7---7/6---6-| 
----------------------------------------|----------------------------------| 
----------------------------------------|----------------------------------| 
----------------------------------------|----------------------------------| 
 
 
                                                                 
----5-----7-----9-----7-----5-----|--5----5----5----5----5-3---| 
----------------------------------|----------------------------| 
--6---6/7---7/9---9/7---7/6---6-6-|----6----6----6----6--------| 
----------------------------------|----------------------------| 
----------------------------------|----------------------------| 
----------------------------------|----------------------------| 
 
 
                                                        
--5-3----------------------------|--2----------------|| 
------5-3-5-3--------------------|--3----------------|| 
--------------4-2-4-2------------|--2----------------|| 
----------------------4-2-4-2-0--|--0----------------|| 
---------------------------------|-------------------|| 
---------------------------------|-------------------||
	  

there isn't a video lesson for this song

request
Search
auto scroll beats size up size down change color hide chords drawings
tab show chords e-chords YouTube Clip e-chords hide all tabs e-chords go to top tab