Led Zeppelin

home > Led Zeppel... > chords

Stairway to Heaven ( Solo) Tab

Led Zeppelin

Difficulty: ExpertExpert

by **slash**

tuner correct add songbook print version text version rtf version e-mail
chordsukulelecavacokeyboardtabbassdrumsharmonicsflute Guitar Pro
chords

Stairway to Heaven ( Solo)

	  " Fornecido por Rodrigo " 
 
s-slide      
b-bend  
p-pull off  
h-hammer on  
 
Intro  
E|-------5-7-----7-8-----8-2-----2-0---------0--------------------  
B|-----5-----5-------5-------3-------1---1-----1------------------  
G|---5---------5-------5-------2-------2---------2--0-2-2---------  
D|-7-------6-------5-------4-------3------------------------------  
A|--------------------------------------------------2-0-0---0s8s7-  
E|----------------------------------------------------------------  
 
E|-------5-7-----7-8-----8-2-----2-0---------0------------  
B|-----5-----5-------5-------3-------1---1-----1----------  
G|---5---------5-------5-------2-------2---------2--0-2-2-  
D|-7-------6-------5-------4-------3----------------------  
A|--------------------------------------------------2-0-0-  
E|--------------------------------------------------------  
 
 
E|-----------0-2-----2-0-----0-----------------3-----3-3-2-2-2-  
B|---------------3-------1-----0-------1-----1---0-----3---3-3-  
G|---------0-------2-------2-----2-------0---------0---2---2-2-  
D|-------2-----0-------3-------------------2-------------------  
A|-0-2-3-----------------------0---0-2-3-----------------------  
E|-------------------------------------------------------------  
 
E|-------------2-----2-0-----0-0--------------------2-0-0-0--  
B|-----------1---3-------1------------------1-----3---1-1-1--  
G|---------0-------2-------2-----2---------0----2-----2-2-2--  
D|-------2-----0-------3-----------------2----0-------3-3-3--  
A|-0-2-3---------------------------0-2-3---------------------  
E|-----------------------------------------------------------  
 
 
There's a...  
E|-------5-7-----7-8-----8-2-----2-0---------0------------  
B|-----5-----5-------5-------3-------1---1-----1------1-1-  
G|---5---------5-------5-------2-------2---------2--0-2-2-  
D|-7-------6-------5-------4-------3----------------------  
A|--------------------------------------------------2-0-0-  
E|--------------------------------------------------------  
 
 
When she...  
E|-------5-7-----7-8-----8-2-----2-0---------0------------  
B|-----5-----5-------5-------3-------1---1-----1----------  
G|---5---------5-------5-------2-------2---------2--------  
D|-7-------6-------5-------4-------3----------------------  
A|--------------------------------------------------2-0-0-  
E|--------------------------------------------------------  
 
E|-------------2-----2-0-----0---------0-----0---3-----3-3-2-2-2-  
B|-----------1---3-------1-----0-----------1-------3-----3---3-3-  
G|---------0-------2-------2-----2-------0-----------0---2---2-2-  
D|-------2-----0-------3-----------------------------------------  
A|-0-2-3-----------------------0---0-2-3---------3---------------  
E|---------------------------------------------------------------  
 
 
There's a ...  
E|-----------0-2-----2-0---------------0-------2-----2-0-0-0-  
B|---------------3-------1---1-0-------------1---3-----1-1-1-  
G|---------0-------2-------2-----2-------0---------2---2-2-2-  
D|-------2-----0-------3-------------------2---0-------3-3-3-  
A|-0-2-3---------------------------0-2-3---------------------  
E|-----------------------------------------------------------  
 
In a...  
E|-------5-7-----7-8-----8-2-----2-0---------0--------------------  
B|-----5-----5-------5-------3-------1---1-----1------------------  
G|---5---------5-------5-------2-------2---------2--0-2-2---------  
D|-7-------6-------5-------4-------3------------------------------  
A|--------------------------------------------------2-0-0---0s8s7-  
E|----------------------------------------------------------------  
 
 
Interlude  
E|-------5-7--7------8-------2-------0------0------------------  
B|-----5----5--5----5-5-----3-3-----1--1---1-1--------------3--  
G|---5-------5--5--5---5---2---2---2----2-2---2-------------0--  
D|-7-------6-----65-----5-4-----4-3------3-----3------------0--  
A|--------------------------------------------------2-0-0---2--  
E|-------------------------------------------------------------  
 
 
Intro 2  
E|3-333-3---0---3---2-----2--2---|--333-3---0---7---5---3---5------  
B|1-111-1---1---3---3-----3-33-10|1-111-1---1---8---7---5---7------  
G|0-000-0---0---0---2-----2-22-00|0-000-0---0---9---7---5---7--7---  
D|2-222-2---2---0---0---0---00-20|2-222-2---2----------------------  
A|----------------------0--------|-------------------------------0-  
E|-------------------------------|---------------------------------  
 
E|3-333-3---0---3---2-----2--2---|--333-3---0---7---5---3---5------  
B|1-111-1---1---3---3-----3-33-10|1-111-1---1---8---7---5---7------  
G|0-000-0---0---0---2-----2-22-00|0-000-0---0---9---7---5---7--7---  
D|2-222-2---2---0---0---0---00-20|2-222-2---2----------------------  
A|----------------------0--------|-------------------------------0-  
E|-------------------------------|---------------------------------  
 
 
Singing bit  
E|---0-3-----3-----------------------------------1-0---------  
B|-1-----1-0-----0-0---------1-----------1-0-----1-1-------0-  
G|-------------0-----2-----2-----------0-------0-2-2-----2---  
D|-----------------------2-----------2-------0---3-2---------  
A|-3-------2-----------0-------0-2-3-------2-----3-0-----0-2-  
E|-----------------------------------------------1-----------  
 
E|---0-3-----3-----------------------0-3-------3-1-0---------  
B|-1-----1-0-----0-0---------1-----1-----1-0-3---1-1-------0-  
G|-------------0-----2-----2---------------------2-2-----2---  
D|-----------------------2-----------------------3-2---------  
A|-3-------2-------0---0-------0-2-3-------2-----3-0-----0-2-  
E|-----------------------------------------------1-----------  
 
E|---0-3-----0-3---  
B|-1-----1-0-----0-  
G|-----------------  
D|-----------------  
A|-3-------2-----0-  
E|-----------------  
 
 
Chorus(More electric)  
E|3-333-3---0---3---2-----2--2---|--333-3---0---7---5---3---5------  
B|1-111-1---1---3---3-----3-33-10|1-111-1---1---8---7---5---7------  
G|0-000-0---0---0---2-----2-22-00|0-000-0---0---9---7---5---7--7---  
D|2-222-2---2---0---0---0---00-20|2-222-2---2----------------------  
A|----------------------0--------|-------------------------------0-  
E|-------------------------------|---------------------------------  
 
E|3-333-3---0---3---2-----2--2---|--333-3---0---7---5---3---5------  
B|1-111-1---1---3---3-----3-33-10|1-111-1---1---8---7---5---7------  
G|0-000-0---0---0---2-----2-22-00|0-000-0---0---9---7---5---7--7---  
D|2-222-2---2---0---0---0---00-20|2-222-2---2----------------------  
A|----------------------0--------|-------------------------------0-  
E|-------------------------------|---------------------------------  
 
 
Singing bit  
E|-----------------------0-----------0-3-------3-1-0---------  
B|-------1-0-3---0---1-------1---0-1-----0-0-3---1-1-------0-  
G|-----0-------0---2---2---2---2-----------------2-2-----2---  
D|---2-------------------------------------------3-2---------  
A|-3-------2-------0-----------0-2-3-------2-----3-0-----0-2-  
E|-----------------------------------------------1-----------  
 
E|---0-3-------3---------0-----------0-3-------3-1-0---------  
B|-1-----1-0-3---3---1-------1---0-1-----1-0-3---1-1-------0-  
G|-----------------2---2---2---2-----------------2-2-----2---  
D|-----------------------------------------------3-2---------  
A|-3-------2-------0-----------0-2-3-------2-----3-0-----0-2-  
E|-----------------------------------------------1-----------  
 
E|---0-3-------3---  
B|-1-----1-0-3---0-  
G|-----------------  
D|-----------------  
A|-3-------2-----0-  
E|-----------------  
 
Chorus(More electric)  
E|3-333-3---0---3---2-----2--2---|--333-3---0---7---5---3---5------  
B|1-111-1---1---3---3-----3-33-10|1-111-1---1---8---7---5---7------  
G|0-000-0---0---0---2-----2-22-00|0-000-0---0---9---7---5---7--7---  
D|2-222-2---2---0---0---0---00-20|2-222-2---2----------------------  
A|----------------------0--------|-------------------------------0-  
E|-------------------------------|---------------------------------  
 
E|3-333-3---0---3---2-----2--2---|--333-3---0---7---5---3---5------  
B|1-111-1---1---3---3-----3-33-10|1-111-1---1---8---7---5---7------  
G|0-000-0---0---0---2-----2-22-00|0-000-0---0---9---7---5---7--7---  
D|2-222-2---2---0---0---0---00-20|2-222-2---2----------------------  
A|----------------------0--------|-------------------------------0-  
E|-------------------------------|---------------------------------  
 
 
Singing bit  
E|---0-3-------3---------------------0-3-------3-1-0---------  
B|-1-----1-0-3---3-0---------1---0-1-----0-0-3---1-1-------0-  
G|-------------------2-2---2---2-----------------2-2-----2---  
D|-----------------------2-----------------------3-2---------  
A|-3-------2-------0-----------0-2-3-------2-----3-0-----0-2-  
E|-----------------------------------------------1-----------  
 
E|---0-3-------3---------------------0-3-------3-1-0---------  
B|-1-----1-0-3---3-0---------1---0-1-----1-0-3---1-1-------0-  
G|-------------------2-2---2---2-----------------2-2-----2---  
D|-----------------------2-----------------------3-2---------  
A|-3-------2-------0-----------0-2-3-------2-----3-0-----0-2-  
E|-----------------------------------------------1-----------  
 
E|---0-3-------3---  
B|-1-----1-0-3---0-  
G|-----------------  
D|-----------------  
A|-3-------2-------  
E|-----------------  
 
 
Chorus(More electric)  
E|3-333-3---0---3---2-----2--2---|--333-3---0---7---5---3---5------  
B|1-111-1---1---3---3-----3-33-10|1-111-1---1---8---7---5---7------  
G|0-000-0---0---0---2-----2-22-00|0-000-0---0---9---7---5---7--7---  
D|2-222-2---2---0---0---0---00-20|2-222-2---2----------------------  
A|----------------------0--------|-------------------------------0-  
E|-------------------------------|---------------------------------  
 
E|3-333-3---0---3---2-----2--2---|--333-3---0---7---5---3---5------  
B|1-111-1---1---3---3-----3-33-10|1-111-1---1---8---7---5---7------  
G|0-000-0---0---0---2-----2-22-00|0-000-0---0---9---7---5---7--7---  
D|2-222-2---2---0---0---0---00-20|2-222-2---2----------------------  
A|----------------------0--------|-------------------------------0-  
E|-------------------------------|---------------------------------  
 
 
Singing bit  
E|---0-3-------3---------------------0-3-------3-1-0---------  
B|-1-----1-0-3---3-0---------1---0-1-----0-0-3---1-1-------0-  
G|-------------------2-2---2---2-----------------2-2-----2---  
D|-----------------------2-----------------------3-2---------  
A|-3-------2-------0-------0---0-2-3-------2-----3-0-----0-2-  
E|---------------------------0-------------------1-----------  
 
E|---0-3-------3---------------------0-3-------3-1-0---------  
B|-1-----1-0-3---3-0---------1---0-1-----1-0-3---1-1-------0-  
G|-------------------2-2---2---2-----------------2-2-----2---  
D|-----------------------2-----------------------3-2---------  
A|-3-------2-------0-------0---0-2-3-------2-----3-0------022  
E|---------------------------0-------------------1-----------  
 
E|0-------3-----33  
B|------1-------00  
G|----0-------0-00  
D|--2-2-----0---00  
A|3-------2-----22  
E|----------------  
 
 
Intro 3  
E|2---------------022|3-----0223---022|3---3---2---|3---0-2--22-0---|  
B|3---------------333|3-----3333---333|3---3---3---|3---3-3--33-3---|  
G|2---------------222|2-----2222---222|2---2---2---|0---0-0--00-0---|  
D|0---------------000|0-----0000---000|0---0---0---|2---2-2--22-2---|  
A|-------------------|----------------|------------|3---3-3--33-3---|  
E|-------------------|----------------|------------|----------------|  
 
E|3---3-2--22-0---0-02|3-----023-----02|3---3---2---0-|  
B|3---3-3--33-3---3-33|3-----333-----33|3---3---3---3-|  
G|0---0-0--00-0---0-22|2-----222-----22|2---2---2---0-|  
D|2---2-2--22-2---2-00|0-----000-----00|0---0---0---2-|  
A|3---3-3--33-3---3---|----------------|------------3-|  
E|--------------------|----------------|--------------|  
 
 
E|----2--22-0-0---|----------------|  
B|----3--33-----3-|0-3-3-3-3-3-3-3-|  
G|----0--00-------|0-0-0-0-0-0-0-0-|  
D|----2--22-------|0-0-0-0-0-0-0-0-|  
A|----3--33-------|2-2-2-2-2-2-2-2-|  
E|----------------|----------------|  
 
 
Bridge (Guitar Solo)  
E|--------5-------|----------------|--------------10|------------5---|  
B|---------85-----|------------1313|13b-1310--1013--|13108--810---85-|  
G|7b---------75-75|----------12----|--------12------|-----10---7b---7|  
D|-------------7--|753-3-----------|----------------|----------------|  
A|----------------|----------------|----------------|----------------|  
E|----------------|----------------|----------------|----------------|  
 |  
 |(Electric 12 string Guitars)  
E|000-0--00-0-000-|1-1-1--0000-000-|000-0--00-0-000-|1-1-1--0000-000-|  
B|111-1--11-1-111-|1-1-1--1111-111-|111-1--11-1-111-|1-1-1--1111-111-|  
G|222-2--20-0-000-|2-2-2--2222-222-|222-2--20-0-000-|2-2-2--2222-222-|  
D|222-2--22-2-222-|3-3-3--3333-333-|222-2--22-2-222-|3-3-3--3333-333-|  
A|000-0--03-3-333-|3-3-3--3333-333-|000-0--03-3-333-|3-3-3--3333-333-|  
E|----------------|1-1-1--1111-111-|----------------|1-1-1--1111-111-|  
 
 
 
 
E|----------------|--5-------------|----------------|---------15-----|  
B|----------------|---85-----------|---5------8---13|15b151314--12---|  
G|5-75------5-5-5-|-----75-75------|--5-75-579-1214-|--------------14|  
D|-7--75-57--7----|53-----7--7575--|7-----7---------|----------------|  
A|------7---------|--------------88|----------------|----------------|  
E|----------------|----------------|----------------|----------------|  
 |  
 |  
E|000-0--00-0-000-|1-1-1--0000-000-|000-0--00-0-000-|1-1-1--0000-000-|  
B|111-1--11-1-111-|1-1-1--1111-111-|111-1--11-1-111-|1-1-1--1111-111-|  
G|222-2--20-0-000-|2-2-2--2222-222-|222-2--20-0-000-|2-2-2--2222-222-|  
D|222-2--22-2-222-|3-3-3--3333-333-|222-2--22-2-222-|3-3-3--3333-333-|  
A|000-0--03-3-333-|3-3-3--3333-333-|000-0--03-3-333-|3-3-3--3333-333-|  
E|----------------|1-1-1--1111-111-|----------------|1-1-1--1111-111-|  
 
 
 
 
E|----------------|----------------|--------15b-----|121512--------15|  
B|131513--131513--|131513--131513--|131513----------|------1512--13--|  
G|------14------14|------14------14|------14--------|----------15----|  
D|----------------|----------------|----------------|----------------|  
A|----------------|----------------|----------------|----------------|  
E|----------------|----------------|----------------|----------------|  
 |  
 |  
E|000-0--00-0-000-|1-1-1--0000-000-|000-0--00-0-000-|1-1-1--0000-000-|  
B|111-1--11-1-111-|1-1-1--1111-111-|111-1--11-1-111-|1-1-1--1111-111-|  
G|222-2--20-0-000-|2-2-2--2222-222-|222-2--20-0-000-|2-2-2--2222-222-|  
D|222-2--22-2-222-|3-3-3--3333-333-|222-2--22-2-222-|3-3-3--3333-333-|  
A|000-0--03-3-333-|3-3-3--3333-333-|000-0--03-3-333-|3-3-3--3333-333-|  
E|----------------|1-1-1--1111-111-|----------------|1-1-1--1111-111-|  
 
 
 
E|----------------|---151715-------|----------------|----------------|  
B|15b141414---14--|15b------161513-|15b-------------|11b---1110--10--|  
G|----------------|----------------|----------------|----------12--12|  
D|----------------|----------------|----------------|----------------|  
A|----------------|----------------|----------------|----------------|  
E|----------------|----------------|----------------|----------------|  
 |  
 |(Electric 12 string)  
E|000-0--00-0-000-|1-1-1--0000-000-|000-0--00-0-000-|1-1-1--0000-000-|  
B|111-1--11-1-111-|1-1-1--1111-111-|111-1--11-1-111-|1-1-1--1111-111-|  
G|222-2--20-0-000-|2-2-2--2222-222-|222-2--20-0-000-|2-2-2--2222-222-|  
D|222-2--22-2-222-|3-3-3--3333-333-|222-2--22-2-222-|3-3-3--3333-333-|  
A|000-0--03-3-333-|3-3-3--3333-333-|000-0--03-3-333-|3-3-3--3333-333-|  
E|----------------|1-1-1--1111-111-|----------------|1-1-1--1111-111-|  
 |  
 |(Electric 6 string)  
E|----------------|----------------|----------------|----------------|  
B|----1312----1310|----------------|----1312----1310|----------------|  
G|----------------|----------------|----------------|----------------|  
D|----------------|----------------|----------------|----------------|  
A|----------------|----------------|----------------|----------------|  
E|----------------|----------------|----------------|----------------|  
 |  
 |(Electric 12 string)  
E|----------------|----------------|----------------|----------------|  
B|------5---5-5-5-|5-6-6----6---5--|-55-5-5---5--55-|--6--55-5-5--65-|  
G|--------5----5-5|-5-----5--555-55|7------5-5--5--5|-5-----7-------5|  
D|-------7---7----|----------------|--------5--5----|7---------------|  
A|----------------|----------------|----------------|----------------|  
E|----------------|----------------|----------------|----------------|  
 
 
 
 
 
E|----------------|----------------|----------------|--2017--201720b-|  
B|----------------|8b--------9-7575|7975------------|17----17--------|  
G|12--------------|----------------|----7-----------|----------------|  
D|----------------|----------------|----------------|----------------|  
A|----------------|----------------|----------------|----------------|  
E|----------------|----------------|----------------|----------------|  
 |  
 |  
E|000-0--00-0-000-|1-1-1--0000-000-|000-0--00-0-000-|1-1-1--0000-000-|  
B|111-1--11-1-111-|1-1-1--1111-111-|111-1--11-1-111-|1-1-1--1111-111-|  
G|222-2--20-0-000-|2-2-2--2222-222-|222-2--20-0-000-|2-2-2--2222-222-|  
D|222-2--22-2-222-|3-3-3--3333-333-|222-2--22-2-222-|3-3-3--3333-333-|  
A|000-0--03-3-333-|3-3-3--3333-333-|000-0--03-3-333-|3-3-3--3333-333-|  
E|----------------|1-1-1--1111-111-|----------------|1-1-1--1111-111-|  
 |  
 |  
E|----------------|----------------|----------------|----------------|  
B|----1312----1310|----------------|----1312----1310|----------------|  
G|----------------|----------------|----------------|----------------|  
D|----------------|----------------|----------------|----------------|  
A|----------------|----------------|----------------|----------------|  
E|----------------|----------------|----------------|----------------|  
 |  
 |  
E|----------------|----------------|----------------|----------------|  
B|--5---5---5---5-|--6-65----5-5---|--3-5-5--55---5-|--6-------------|  
G|-5---------5-5-5|-5----5--5---5-5|-5-----------5-5|-5---5----5-5-57|  
D|7-----------7---|7------7------7-|7-----------7---|----7-7--7-7-7--|  
A|----------------|----------------|----------------|8--8------------|  
E|----------------|----------------|----------------|----------------|  
 
 
 
 
Verse: And as we wind on down the road.....  
E|5-5----3-3------|1--1--1--1--1-3-|5-5-----3-3-----|1--1--1--1--1-3-|  
B|5-5----3-3------|1--1--1--1--1-3-|5-5-----3-3-----|1--1--1--1--1-3-|  
G|6-6----4-4------|2--2--2--2--2-4-|6-6-----4-4-----|2--2--2--2--2-4-|  
D|7-7----5-5------|3--3--3--3--3-5-|7-7-----5-5-----|3--3--3--3--3-5-|  
A|7-7----5-5------|3--3--3--3--3-5-|7-7-----5-5-----|3--3--3--3--3-5-|  
E|5-5----3-3------|1--1--1--1--1-3-|5-5-----3-3-----|1--1--1--1--1-3-|  
 |  
 |  
E|------------0---|----------------|----XXX-----3---|1--1--1--1-11---|  
B|----5-5-3-3-----|----------------|--------3-3-3---|1--1--1--1-11-3-|  
G|--------0-0-----|2--2--2--2--2-2-|--------0-0-----|2--2--2--2-22-2-|  
D|2-2-----0-0-----|3--3--3--3--3-0-|2-2-----0-0-----|3--3--3--3-33-0-|  
A|0-0-----X-X-----|3--3--3--3--3-X-|0-0-----X-X-----|3--3--3--3-33---|  
E|--------3-3-----|--------------3-|--------3-3-----|1--1--1--1-11-3-|  
 |  
 |  
E|----------------|----------------|----------------|----------------|  
B|----------------|----------------|----------------|----------------|  
G|----------------|----------------|----------------|----------------|  
D|-------5-5------|---------2------|7-7-----5-5-----|---------2------|  
A|----------------|------3-----5-3-|----------------|------3-----5-3-|  
E|-------3-3------|1--5------------|5-5-----3-3-----|1--5------------|  
 |  
 |  
E|----XXXX----XXXX|------------1---|----XXXX----XXXX|------------1---|  
B|5-5-XXXX3-3-XXXX|1-X1-X1--1-X2-3-|5-5-XXXX3-3-XXXX|1-X1-X1--1-X2-3-|  
G|5-5-XXXX4-4-XXXX|2-X2-X22-2-X3-4-|5-5-XXXX4-4-XXXX|2-X2-X22-2-X3-4-|  
D|7-7-----5-5-----|3-X3-X33-3-X3-5-|7-7-----5-5-----|3-X3-X33-3-X3-5-|  
A|7-7-----5-5-----|3--3--33------5-|7-7-----5-5-----|3--3--33------5-|  
E|----------------|----------------|----------------|----------------|  
 
 
 
 
 
 
E|5-5----3-3------|1--1--1--1--1-3-|5-5-----3-3-----|1--1--1--1--1-3-|  
B|5-5----3-3------|1--1--1--1--1-3-|5-5-----3-3-----|1--1--1--1--1-3-|  
G|6-6----4-4------|2--2--2--2--2-4-|6-6-----4-4-----|2--2--2--2--2-4-|  
D|7-7----5-5------|3--3--3--3--3-5-|7-7-----5-5-----|3--3--3--3--3-5-|  
A|7-7----5-5------|3--3--3--3--3-5-|7-7-----5-5-----|3--3--3--3--3-5-|  
E|5-5----3-3------|1--1--1--1--1-3-|5-5-----3-3-----|1--1--1--1--1-3-|  
 |  
 |  
E|------------0---|----------------|----XXX-----3---|1--1--1--1-11---|  
B|----5-5-3-3-----|----------------|--------3-3-3---|1--1--1--1-11-3-|  
G|--------0-0-----|2--2--2--2--2-2-|--------0-0-----|2--2--2--2-22-2-|  
D|2-2-----0-0-----|3--3--3--3--3-0-|2-2-----0-0-----|3--3--3--3-33-0-|  
A|0-0-----X-X-----|3--3--3--3--3-X-|0-0-----X-X-----|3--3--3--3-33---|  
E|--------3-3-----|--------------3-|--------3-3-----|1--1--1--1-11-3-|  
 |  
 |  
E|----------------|----------------|----------------|----------------|  
B|----------------|----------------|----------------|----------------|  
G|----------------|----------------|----------------|----------------|  
D|-------5-5------|---------2------|7-7-----5-5-----|---------2------|  
A|----------------|------3-----5-3-|----------------|------3-----5-3-|  
E|-------3-3------|1--5------------|5-5-----3-3-----|1--5------------|  
 |  
 |  
E|----XXXX----XXXX|------------1---|----XXXX----XXXX|------------1---|  
B|5-5-XXXX3-3-XXXX|1-X1-X1--1-X2-3-|5-5-XXXX3-3-XXXX|1-X1-X1--1-X2-3-|  
G|5-5-XXXX4-4-XXXX|2-X2-X22-2-X3-4-|5-5-XXXX4-4-XXXX|2-X2-X22-2-X3-4-|  
D|7-7-----5-5-----|3-X3-X33-3-X3-5-|7-7-----5-5-----|3-X3-X33-3-X3-5-|  
A|7-7-----5-5-----|3--3--33------5-|7-7-----5-5-----|3--3--33------5-|  
E|----------------|----------------|----------------|----------------|  
 
 
 
 
E|5-5----3-3------|1--1--1--1--1-3-|5-5-----3-3-----|1--1--1--1--1-3-|  
B|5-5----3-3------|1--1--1--1--1-3-|5-5-----3-3-----|1--1--1--1--1-3-|  
G|6-6----4-4------|2--2--2--2--2-4-|6-6-----4-4-----|2--2--2--2--2-4-|  
D|7-7----5-5------|3--3--3--3--3-5-|7-7-----5-5-----|3--3--3--3--3-5-|  
A|7-7----5-5------|3--3--3--3--3-5-|7-7-----5-5-----|3--3--3--3--3-5-|  
E|5-5----3-3------|1--1--1--1--1-3-|5-5-----3-3-----|1--1--1--1--1-3-|  
 |  
 |  
E|------------0---|----------------|----XXX-----3---|1--1--1--1-11---|  
B|----5-5-3-3-----|----------------|--------3-3-3---|1--1--1--1-11-3-|  
G|--------0-0-----|2--2--2--2--2-2-|--------0-0-----|2--2--2--2-22-2-|  
D|2-2-----0-0-----|3--3--3--3--3-0-|2-2-----0-0-----|3--3--3--3-33-0-|  
A|0-0-----X-X-----|3--3--3--3--3-X-|0-0-----X-X-----|3--3--3--3-33---|  
E|--------3-3-----|--------------3-|--------3-3-----|1--1--1--1-11-3-|  
 |  
 |  
E|----------------|----------------|----------------|----------------|  
B|----------------|----------------|----------------|----------------|  
G|----------------|----------------|----------------|----------------|  
D|-------5-5------|---------2------|7-7-----5-5-----|---------2------|  
A|----------------|------3-----5-3-|----------------|------3-----5-3-|  
E|-------3-3------|1--5------------|5-5-----3-3-----|1--5------------|  
 |  
 |  
E|----XXXX----XXXX|------------1---|----XXXX----XXXX|------------1---|  
B|5-5-XXXX3-3-XXXX|1-X1-X1--1-X2-3-|5-5-XXXX3-3-XXXX|1-X1-X1--1-X2-3-|  
G|5-5-XXXX4-4-XXXX|2-X2-X22-2-X3-4-|5-5-XXXX4-4-XXXX|2-X2-X22-2-X3-4-|  
D|7-7-----5-5-----|3-X3-X33-3-X3-5-|7-7-----5-5-----|3-X3-X33-3-X3-5-|  
A|7-7-----5-5-----|3--3--33------5-|7-7-----5-5-----|3--3--33------5-|  
E|----------------|----------------|----------------|----------------|  
 
 
 
 
E|5-5----3-3------|1--1--1--1--1-3-|5-5-----3-3-----|1--1--1--1--1-3-|  
B|5-5----3-3------|1--1--1--1--1-3-|5-5-----3-3-----|1--1--1--1--1-3-|  
G|6-6----4-4------|2--2--2--2--2-4-|6-6-----4-4-----|2--2--2--2--2-4-|  
D|7-7----5-5------|3--3--3--3--3-5-|7-7-----5-5-----|3--3--3--3--3-5-|  
A|7-7----5-5------|3--3--3--3--3-5-|7-7-----5-5-----|3--3--3--3--3-5-|  
E|5-5----3-3------|1--1--1--1--1-3-|5-5-----3-3-----|1--1--1--1--1-3-|  
 |  
 |  
E|------------0---|----------------|----XXX-----3---|1--1--1--1-11---|  
B|----5-5-3-3-----|----------------|--------3-3-3---|1--1--1--1-11-3-|  
G|--------0-0-----|2--2--2--2--2-2-|--------0-0-----|2--2--2--2-22-2-|  
D|2-2-----0-0-----|3--3--3--3--3-0-|2-2-----0-0-----|3--3--3--3-33-0-|  
A|0-0-----X-X-----|3--3--3--3--3-X-|0-0-----X-X-----|3--3--3--3-33---|  
E|--------3-3-----|--------------3-|--------3-3-----|1--1--1--1-11-3-|  
 |  
 |  
E|----------------|----------------|----------------|----------------|  
B|----------------|----------------|----------------|----------------|  
G|----------------|----------------|----------------|----------------|  
D|-------5-5------|---------2------|7-7-----5-5-----|---------2------|  
A|----------------|------3-----5-3-|----------------|------3-----5-3-|  
E|-------3-3------|1--5------------|5-5-----3-3-----|1--5------------|  
 |  
 |  
E|----XXXX----XXXX|------------1---|----XXXX----XXXX|------------1---|  
B|5-5-XXXX3-3-XXXX|1-X1-X1--1-X2-3-|5-5-XXXX3-3-XXXX|1-X1-X1--1-X2-3-|  
G|5-5-XXXX4-4-XXXX|2-X2-X22-2-X3-4-|5-5-XXXX4-4-XXXX|2-X2-X22-2-X3-4-|  
D|7-7-----5-5-----|3-X3-X33-3-X3-5-|7-7-----5-5-----|3-X3-X33-3-X3-5-|  
A|7-7-----5-5-----|3--3--33------5-|7-7-----5-5-----|3--3--33------5-|  
E|----------------|----------------|----------------|----------------|  
 
 
 
 
 
E|5-5----3-3------|1--1--1--1--1-3-|5-5-----3-3-----|1--1--1--1--1-3-|  
B|5-5----3-3------|1--1--1--1--1-3-|5-5-----3-3-----|1--1--1--1--1-3-|  
G|6-6----4-4------|2--2--2--2--2-4-|6-6-----4-4-----|2--2--2--2--2-4-|  
D|7-7----5-5------|3--3--3--3--3-5-|7-7-----5-5-----|3--3--3--3--3-5-|  
A|7-7----5-5------|3--3--3--3--3-5-|7-7-----5-5-----|3--3--3--3--3-5-|  
E|5-5----3-3------|1--1--1--1--1-3-|5-5-----3-3-----|1--1--1--1--1-3-|  
 |  
 |  
E|------------0---|----------------|----XXX-----3---|1--1--1--1-11---|  
B|----5-5-3-3-----|----------------|--------3-3-3---|1--1--1--1-11-3-|  
G|--------0-0-----|2--2--2--2--2-2-|--------0-0-----|2--2--2--2-22-2-|  
D|2-2-----0-0-----|3--3--3--3--3-0-|2-2-----0-0-----|3--3--3--3-33-0-|  
A|0-0-----X-X-----|3--3--3--3--3-X-|0-0-----X-X-----|3--3--3--3-33---|  
E|--------3-3-----|--------------3-|--------3-3-----|1--1--1--1-11-3-|  
 |  
 |  
E|----------------|----------------|----------------|----------------|  
B|----------------|----------------|----------------|----------------|  
G|----------------|----------------|----------------|----------------|  
D|-------5-5------|---------2------|7-7-----5-5-----|---------2------|  
A|----------------|------3-----5-3-|----------------|------3-----5-3-|  
E|-------3-3------|1--5------------|5-5-----3-3-----|1--5------------|  
 |  
 |  
E|----XXXX----XXXX|------------1---|----XXXX----XXXX|------------1---|  
B|5-5-XXXX3-3-XXXX|1-X1-X1--1-X2-3-|5-5-XXXX3-3-XXXX|1-X1-X1--1-X2-3-|  
G|5-5-XXXX4-4-XXXX|2-X2-X22-2-X3-4-|5-5-XXXX4-4-XXXX|2-X2-X22-2-X3-4-|  
D|7-7-----5-5-----|3-X3-X33-3-X3-5-|7-7-----5-5-----|3-X3-X33-3-X3-5-|  
A|7-7-----5-5-----|3--3--33------5-|7-7-----5-5-----|3--3--33------5-|  
E|----------------|----------------|----------------|----------------|  
 
 
 
 
 
E|5-5----3-3------|1--1--1--1--1-3-|5-5-----3-3-----|1---------------|  
B|5-5----3-3------|1--1--1--1--1-3-|5-5-----3-3-----|1---------------|  
G|6-6----4-4------|2--2--2--2--2-4-|6-6-----4-4-----|2---------------|  
D|7-7----5-5------|3--3--3--3--3-5-|7-7-----5-5-----|3---------------|  
A|7-7----5-5------|3--3--3--3--3-5-|7-7-----5-5-----|3---------------|  
E|5-5----3-3------|1--1--1--1--1-3-|5-5-----3-3-----|1---------------|  
 |  
 |  
E|------------0---|----------------|----0000------0-|----0--00-000---|  
B|----5-5-3-3-----|----------------|0-0-----------1-|----1--11-111-1-|  
G|--------0-0-----|2--2--2--2--2-2-|2-2-----0-0---2-|----2--22-222-2-|  
D|2-2-----0-0-----|3--3--3--3--3-0-|2-2-----0-0---3-|----3--33-333-3-|  
A|0-0-----X-X-----|3--3--3--3--3-X-|0-0-----0-0---3-|----3--33-333-3-|  
E|--------3-3-----|--------------3-|--------3-3---1-|----1--11-111---|  
 |  
 |  
E|----------------|----------------|----------------|----------------|  
B|----------------|----------------|----------------|----------------|  
G|----------------|----------------|----------------|----------------|  
D|-------5-5------|---------2------|7-7-----5-5-----|----------------|  
A|----------------|------3-----5-3-|--------------3-|----3--3033-0-3-|  
E|-------3-3------|1--5------------|5-5-----3-3-----|----------------|  
 |  
 |  
E|----XXXX----XXXX|------------1---|--------------11|----------1---1-|  
B|5-5-XXXX3-3-XXXX|1-X1-X1--1-X2-3-|--------------11|---------1-1-1-1|  
G|5-5-XXXX4-4-XXXX|2-X2-X22-2-X3-4-|--------------22|----2---2---2---|  
D|7-7-----5-5-----|3-X3-X33-3-X3-5-|--------------33|----3-----------|  
A|7-7-----5-5-----|3--3--33------5-|--------------33|----3-----------|  
E|----------------|----------------|--------------11|----------------|  
 
E|5-5----3-3----1-|----------------|5---5---3---3---|0-----------333-|  
B|5-5----3-3----1-|----------------|5---5---4---3---|1-----------333-|  
G|6-6----4-4----2-|----------------|6---6---4---4---|2-----------444-|  
D|7-7----5-5----3-|----------------|7---7---5---5---|3-----------555-|  
A|7-7----5-5----3-|----------------|7---7---5---5---|3-----------555-|  
E|5-5----3-3----1-|----------------|5---5---3---3---|1-----------333-|  
 |  
 |  
E|0-0-0000----0-0-|--000--00-0-0-0-|----------------|000-0--0000-0-00|  
B|0-0-----3-3-0-1-|--111--11-1-1-1-|1---1--11-1-1-11|111-1--1111-1-11|  
G|2-2-----0-0---2-|--222--22-2-2-2-|2---2--20-0-0-00|222-2--2222-2-22|  
D|2-2-----0-0---3-|--333--33-3-3-3-|2---2--22-2-2-22|333-3--3333-3-33|  
A|0-0-----------3-|--333--33-3-3-3-|0---0--0--------|333-3--3333-3-33|  
E|--------3-3---1-|--111--11-1-1-1-|----------3-3-33|----------------|  
 |  
 |  
E|----------------|----------------|----------------|----------------|  
B|----------------|----------------|----------------|----------------|  
G|----------------|----------------|----------------|----------------|  
D|7-7-----5-5-----|----------------|7---7--75-5-5---|3---3-------5---|  
A|--------------3-|--333--3033-0-3-|7---7--75-5-5---|3---3-------5---|  
E|5-5-----3-3-----|----------------|5---5--53-3-3---|1---1-------3---|  
 |  
 |  
E|--------------1-|----1-----------|----------------|----------------|  
B|--------------1-|----1-----------|----------------|----------------|  
G|--------------2-|----2-----------|----------------|----------------|  
D|--------------3-|----3-----------|----------------|----------------|  
A|--------------3-|----3-----------|----------------|----------------|  
E|--------------1-|----1-----------|----------------|----------------|  
 |  
 |  
E|----------------|----------------|----------------|----------------|  
B|----------------|----------------|10--10--131313--|10--10--3-3-3-3-|  
G|----------------|------------12b-|12b-----15b-15b-|12b-12b-5b5b5b5b|  
D|----------------|----------------|----------------|----------------|  
A|----------------|----------------|----------------|----------------|  
E|----------------|----------------|----------------|----------------|  
 
                                             
E|5---5---3---3---|0---------------|5---5---3---3---|0---------------|  
B|5---5---3---3---|1---1-------333-|5---5---3---3---|1---1-------333-|  
G|6---6---4---4---|2---2-------444-|6---6---4---4---|2---2-------444-|  
D|7---7---5---5---|3---3-------555-|7---7---5---5---|3---3-------555-|  
A|7---7---5---5---|3---3-------555-|7---7---5---5---|3---3-------555-|  
E|5---5---3---3---|1---1-------333-|5---5---3---3---|1---1-------333-|  
 |  
 |  
E|0-0-0--00---0000|0-0-0--0000-0000|0-0-0--00---0000|0-0-0--0000-0000|  
B|1-1-1--11---1111|1-1-1--1111-1111|0-1-1--10---1111|1-1-1--1111-1111|  
G|2-2-2--20---0000|2-2-2--2222-2222|2-2-2--20---0000|2-2-2--2222-2222|  
D|2-2-2--22---2222|3-3-3--3333-3333|2-2-2--22---2222|3-3-3--3333-3333|  
A|0-0-0--0--------|3-3-3--3333-3333|0-0-0--0--------|3-3-3--3333-3333|  
E|--------3---3333|1-1-1--1111-1111|--------3---3333|1-1-1--1111-1111|  
 |  
 |  
E|----------------|----------------|----------------|----------------|  
B|----------------|----------------|----------------|----------------|  
G|----------------|----------------|----------------|----------------|  
D|7---7--75-5-5---|3---3-------5---|7---7--75-5-5---|3---3-------5---|  
A|7---7--75-5-5---|3---3-------5---|7---7--75-5-5---|3---3-------5---|  
E|5---5--53-3-3---|1---1-------3---|5---5--53-3-3---|1---1-------3---|  
 |  
 |  
E|----------------|----------------|------------0---|----0--000--001-|  
B|----------------|--6-5-----------|----5---3-3-3---|----1--111--111-|  
G|----------------|------55----45-5|----5---4-4-4---|2-222--2222-222-|  
D|----------------|----------7667-7|----7---5-5-5---|3-333--333--333-|  
A|----------------|----------8778-7|7-7-7---5-5-5---|3-333--3333-333-|  
E|----------------|---------------5|5-0-----3-3-3---|1-111--1111-111-|  
 |  
 |  
E|----------------|----------------|----------------|----------------|  
B|5---5---8---10--|13----------12--|12--13--12--13--|13--12--13--15--|  
G|7b--7b--10b-12b-|15b-----15--14b-|14b-15b-14b-15b-|15b-14b-15b-17b-|  
D|----------------|----------------|----------------|----------------|  
A|----------------|----------------|----------------|----------------|  
E|----------------|----------------|----------------|----------------|  
 
                   And she's buy  -  ing a    stair-way....  
E|5---5---3---3---|1---------------|----------------|--------|--------|  
B|5---5---3---3---|1---------------|----------------|--------|--------|  
G|6---6---4---4---|2---------------|----------------|--------|--------|  
D|7---7---5---5---|3---------------|----------------|--------|--------|  
A|7---7---5---5---|3---------------|----------------|--------|--------|  
E|5---5---3---3---|1---------------|----------------|--------|--------|  
 |  
 |  
E|----0--0--------|0---------------|----------------|--------|--------|  
B|1-1-1--11-1-0-0-|1---------------|----------------|--------|--------|  
G|2-2-2--20-0-0-0-|2---------------|----------------|--------|--------|  
D|2-2-----2-2-2-2-|3---------------|----------------|--------|--------|  
A|0-0-------------|3---------------|----------------|--------|--------|  
E|--------3-3-3-3-|1---------------|----------------|--------|--------|  
 |  
 |  
E|----------------|----------------|----------------|--------|--------|  
B|----------------|----------------|----------------|--------|--------|  
G|----------------|----------------|----------------|--------|--------|  
D|7---7---5---5---|3---------------|----------------|--------|--------|  
A|7---7---5---5---|3---------------|----------------|--------|--------|  
E|5---5---3---3---|1---------------|----------------|--------|--------|  
 |  
 |  
E|------------3---|1---------------|----------------|--------|--------|  
B|----5---3---3---|1---------------|----------------|--------|--------|  
G|----5---4---5---|2---------------|----------------|--------|--------|  
D|----7---5---5---|3---------------|----------------|--------|--------|  
A|7---7---5---5---|3---------------|----------------|--------|--------|  
E|5-------3-------|1---------------|----------------|--------|--------|  
 |                                    
 |  
E|----------------|----------------|----------------|--------|--------|  
B|----13--12--13--|10--------------|----------------|--------|--------|  
G|----15b-14b-15b-|12b-------------|----------------|--------|--------|  
D|----------------|----------------|----------------|--------|--------|  
A|----------------|----------------|----------------|--------|--------|  
E|----------------|----------------|----------------|--------|--------| 
	  

Request the video "Stairway to Heaven ( Solo)"  -  Send "Stairway to Heaven ( Solo)" Ringtone to your Cell

there isn't a video lesson for this song

request
e-chords
Search
auto scroll beats size up size down change color hide chords drawings
tab show chords e-chords YouTube Clip e-chords hide all tabs e-chords go to top tab