Led Zeppelin

home > Led Zeppelin

Since I´ve Been Loving You Tab

Led Zeppelin

Difficulty: ExpertExpert

tuner correct add songbook print version text version save to e-mail
chordsukulelecavacokeyboardtabbassdrumsharmonicsflute Guitar Pro
chords

Since I´ve Been Loving You

	   
OBS: Essa música esta igualzinha do LED ZEPPELIN III, é a mesma tablatura, 
eu que tirei de ouvido. 
                                                     ^ 
e|---8----------b------11--10--8--10--11--10--8-----10-8----------------| 
B|-8---11--8--11-13-----------------------------9---------9--9--9--8----| 
G|--------------------------------------------------------------------10| 
D|----------------------------------------------------------------------| 
A|----------------------------------------------------------------------| 
E|----------------------------------------------------------------------| 
 
e|----------------------------------------------------------------------------------------| 
B|--------------------------------------------h-p-------------------s---------------------| 
G|7--8--10--7--8----------------------s------7-8-7------7--8--10--10-12--12--12--12--12---| 
D|----------------10--8----s-----------10-------------10----------------------------------| 
A|-----------------------10-8--6----------------------------------------------------------| 
E|----------------------------------------------------------------------------------------| 
    ^  ^  ^  ^  ^  ^  ^  ^ 
e|11-13-15-13-11-13-15-13-11--------| 
B|----------------------------13--13| 
G|----------------------------------|    2x 
D|----------------------------------| 
A|----------------------------------| 
E|----------------------------------| 
   
e|--s-------b---|--------------10---------------------------------------------------------| 
B|---11---11-13-|----b-----10-----11--8-------------------------s-----------s-------------| 
G|--------------|--10-12-----------------11--10--8-----10------8-7---------8-7------------| 
D|--------------|------------------------------------10----10-------10--8-------10--8-----| 
A|--------------|-------------------------------------------------------------------------| 
E|--------------|-------------------------------------------------------------------------| 
                                               b              b      b 
e|-----------------------------------11--13--13-15--13--13--13-15--13-15------------------| 
B|--s-------------------11--13--13--------------------------------------------------------| 
G|-8-7----7--8--10--12--------------------------------------------------------------------| 
D|-----10---------------------------------------------------------------------------------| 
A|----------------------------------------------------------------------------------------| 
E|----------------------------------------------------------------------------------------| 
                                          b 
e|---^--------^-----------------10--13--13-15-| 
B|-11-8-----11-8-------s----11----------------| 
G|------10-------10--10-12--------------------| 
D|--------------------------------------------| 
A|--------------------------------------------| 
E|--------------------------------------------| 
                                        b 
e|----------b----11---b----11---b-----13-15--11----| 
B|-9--11--11-13-----11-13-----11-13--------------13| 
G|-------------------------------------------------| 
D|-------------------------------------------------| 
A|-------------------------------------------------| 
E|-------------------------------------------------| 
 
 
riif: 
 
e|---------------------------| 
B|---------b--------------b--| 
G|----5---4-6-------5----4-6-| 
D|--4--4-------4--3----4-----| 
A|---------------------------| 
E|---------------------------| 
 
Since I've Been Loving You  
(Jones/Page/Plant)  
 
Working from seven to eleven every night,  
It really makes life a drag, I don't think that's right.  
I've really, really been the best of fools, I did what I could. 
'Cause I love you, baby, How I love you, darling, How I love you,baby,  
How I love you, girl, little girl.  
But baby, Since I've Been Loving You. I'm about to lose myworried mind, oh, yeah.  
 
Everybody trying to tell me that you didn't mean me no good.  
I've been trying, Lord, let me tell you, Let me tell you I reallydid the best I could.  
I've been working from seven to eleven every night, I said Itkinda makes my life a drag.  
Lord, that ain't right...  
Since I've Been Loving You, I'm about to lose my worried mind.  
 
Said I've been crying, my tears they fell like rain,  
Don't you hear, Don't you hear them falling,  
Don't you hear, Don't you hear them falling.  
 
Do you remember mama, when I knocked upon your door?  
I said you had the nerve to tell me you didn't want me no more,yeah  
I open my front door, hear my back door slam,  
You must have one of them new fangled back door man.  
 
I've been working from seven, seven, seven, to eleven everynight, It kinda makes my life a drag...  
Baby, Since I've Been Loving You, I'm about to lose, I'm aboutlose to my worried mind.  
 
 
_______________________________________________________ 
Contribuição: André Herrera Peres(andreperes@bol.com.br) 
	  

there isn't a video lesson for this song

request
Search
auto scroll beats size up size down change color hide chords drawings
tab show chords e-chords YouTube Clip e-chords hide all tabs e-chords go to top tab