Led Zeppelin

home > Led Zeppelin

Nobody's Fault But Mine Tab

Led Zeppelin

Difficulty: IntermediateIntermediate

tuner correct add songbook print version text version save to e-mail
chordsukulelecavacokeyboardtabbassdrummharmonicsflute Guitar Pro
chords

Nobody's Fault But Mine

	   
The intro is double-tracked and played in two octaves. 
Its also heavily flanged.  Here's the lower octave: 
 
e--------------------------------------------------------------------------- 
b--3p0-0-3p0-0-3-3^5--3p0-0-3p0-0---------3p0-0-3-3^5-3-0------------------- 
g----------------------------------0-2^4------------------2-0--------------- 
d--------------------------------------------------------------------------- 
a--------------------------------------------------------------------------- 
E--------------------------------------------------------------------------- 
 
e--------------------------------------------------------------------------- 
b--------------------------------------------------------------------------- 
g-2p1-1-2p1-1-2-2^4^2p1--2-------------------------------------------------- 
d------------------------2-------------------------------------------------- 
a------------------------1-------------------------------------------------- 
E------------------------0-------------------------------------------------- 
 
And the intro riff to the lyrics part: 
 
e--------------------------------------------------------------------------- 
b--------------------------------------------------------------------------- 
g---------------------------------------------2----------------------------- 
d--2p0-0--------------2-----97-7-74-4-------2----------------------------- 
a---------2p0-0-------2-----75-5-52-2-------0----------------------------- 
E----------------3^4--0------------------3^4-------------------------------- 
 
 
And the main rythym: 
 
e--------------------------------------------------------------------------- 
b---------------------------9--9---------------------9-9-9-10-9-10-9-------- 
g--7--------7---------------9--9---7------7----------9-9-9-9--9-9--9-------- 
d--0--7--7--0--7--7---------9--9---0-7-7--0--7-------9-9-9-11-9-11-9-------- 
a-----0--0-----0--0---5--7--7--7-----0-0-----0--10h11----------------------- 
E------------------------0-----0-------------------------------------------- 
 
and the ascending chords at the end of each bar(?) 
 
e--------------------------------------------------------------------------- 
b--------------------------------------------------------------------------- 
g--------------------------------------------------------------------------- 
d--2-2--4-4--5-5--7-7-7-7-7-7-7-7-7----------------------------------------- 
a--2-2--4-4--5-5--7-7-7-7-7-7-7-7-7----------------------------------------- 
E--0-0--2-2--3-3--5-5-5-5-5-5-5-5-5----------------------------------------- 
 
The solo's kind of tough and I really dont remember it. 
 
Heres the ending sequence of the song: 
 
e--------------------------------------------------------------------------- 
b--------------------------------------------------------------------------- 
g--------------------------------------------------------------------------- 
d-------------------------------------------2-2-2--------------------------- 
a-1412-12-12-129-9-9-9-97-7-7-7-75------2-2-2--------------------------- 
E-1210-10-10-107-7-7-7-75-5-5-5-53-3^4--0-0-0--------------------------- 
 
Enjoy! 
CHUCK 
 
                Nobody's Fault But Mine 
                    by Page and Plant 
                        Unledded  
                   tabbed by Craig Knowles  
  
 
 D-----------------------------------------------------------------} 
 A-----------------------------------------------------------------} 
 F-2-2-2-2---2-0-0-0-0----2-2-2-2-------------------------2--------} 
 C-2-2-2-2---2------------2-2-2-2------------------2------0---2----} 
 G-0-0-0-0---0------------0-0-0-0------------------0--0-3---3-0----} 
 D---------3----------------------3--0-----3-2-0-2-------------3-0-} 
 
 D---------} 
 A---------} 
 F---------} 
 C-----2---} 
 G-----0---} 
 D-0-3-----} 

	  

there isn't a video lesson for this song

request
Search
auto scroll beats size up size down change color hide chords drawings
tab show chords e-chords YouTube Clip e-chords hide all tabs e-chords go to top tab