Led Zeppelin

home > Led Zeppelin

Most High Tab

Led Zeppelin

Difficulty: nolevelnolevel

tuner correct add songbook print version text version save to e-mail
chordsukulelecavacokeyboardtabbassdrumsharmonicsflute Guitar Pro
chords

Most High

	  Band - Led Zeppelin (composed by Jimmy Page and Robert Plant) 
Song - Most High 
 
 
E|00---00---00--0--0---0|00-00-00-0-00-0-|00-00-00-0-0----|00-0---000-000--| 
C|00---00---00--0--0---0|00-00-00-0-0000-|00-00-00-0-0---0|00-0---000-00000| 
G|00---00---00--0--54540|00-00-00-0-0045-|55-55-55-5-54540|00-0---000-00455| 
C|00---00---00--0--00--0|00-00-00-0-0000-|00-00-00-0-0---0|00-0---000-00000| 
G|55---55---55--5--55--5|55-55-55-5-5555-|55-55-55-5-55--5|55-5--5555-55555| 
C|00---00---00--0-------|------00--------|----0-0---------|0-----0---------| 
 
E|-0-0-----------0|00-0-----------0|-0-00-00-0-00---|00-00--0-0-0000-| 
C|00-0-----------0|00-0-----------0|00-00-00-0-00--0|00-00--0-0-0000-| 
G|53-33-33-3-32320|03-33-33-3-32320|35-55-55-5-54540|00-00--0-0-0045-| 
C|00--------------|0---------------|-0-00-00-0-00--0|00-00--0-0-0000-| 
G|33-33-33-3-33--3|33-33-33-3-33--3|35-55-55-5-55--5|55-55--5-5-5555-| 
C|----------------|----------------|------00-0-00--0|----0-----------| 
 
E|00-00-00-0-0---0|00-00-00-0-00-0-|00-00-00-0-0----|00-0---000-000--| 
C|00-00-00-0-0---0|00-00-00-0-0000-|00-00-00-0-0---0|00-0---000-00000| 
G|00-00-00-0-54540|00-00-00-0-0045-|55-55-55-5-54540|00-0---000-00455| 
C|00-00-00-0-00--0|00-00-00-0-0000-|00-00-00-0-0---0|00-0---000-00000| 
G|55-55-55-5-55--5|55-55-55-5-5555-|55-55-55-5-55--5|55-5--5555-55555| 
C|00-00-00-0------|------00--------|----0-0---------|0-----0---------| 
   
 
Who guards the truth... 
Who hides the east... 
 
E|-0-0-----------0|00-0-----------0|-0-00-00-0-00---|00-00--0-0-0000-| 
C|00-0-----------0|00-0-----------0|00-00-00-0-00--0|00-00--0-0-0000-| 
G|53-33-33-3-32320|03-33-33-3-32320|35-55-55-5-54540|00-00--0-0-0045-| 
C|00--------------|0---------------|-0-00-00-0-00--0|00-00--0-0-0000-| 
G|33-33-33-3-33--3|33-33-33-3-33--3|35-55-55-5-55--5|55-55--5-5-5555-|Repeat x1 
C|----------------|----------------|------00-0-00--0|----0-----------|  
 
E|8---------------|----------------|--000-----------|00-00-00-0000-0-| 
C|8---------------|----------000000|--000-0--0-00--0|00-00-00-000000-| 
G|8---------------|----------000000|--000-0--0-00540|00-00-00-000045-| 
C|8---------------|----------000000|--000-0--0-00--0|00-00-00-000000-| 
G|8---------------|----------555555|--555-5--5-55--5|55-55-55-555555-| 
C|8---------------|----------------|0---------------|----------------| 
 
Where are the words of the king... 
 
E|0---------------|----------------|00--------------|00-00-00-0-00-00| 
C|0---------------|----------------|00-00000-000---0|00-00-00-0-00000| 
G|----------------|----------000000|00-00000-0004540|00-00-00-0-00455| 
C|9---------------|--------------00|00-00000-0000--0|00-00-00-0-00000| 
G|9---------------|----------------|55-55555-0005--5|55-55-55-5-55555| 
C|9---------------|----------------|00--------------|----------------| 
 
To the light where my spirit... 
 
E|00-00-00-0-0---0|00-00-00-0-00-0-|00-00-00-0-0----|00-0---000-000--| 
C|00-00-00-0-0---0|00-00-00-0-0000-|00-00-00-0-0---0|00-0---000-00000| 
G|00-00-00-0-54540|00-00-00-0-0045-|55-55-55-5-54540|00-0---000-00455| 
C|00-00-00-0-00--0|00-00-00-0-0000-|00-00-00-0-0---0|00-0---000-00000| 
G|55-55-55-5-55--5|55-55-55-5-5555-|55-55-55-5-55--5|55-5--5555-55555| 
C|00-00-00-0------|------00--------|----0-0---------|0-----0---------| 
 
While mercy sleeps in the hearts of liars... 
 
E|-0-0-----------0|00-0-----------0|-0-00-00-0-00---|00-00--0-0-0000-| 
C|00-0-----------0|00-0-----------0|00-00-00-0-00--0|00-00--0-0-0000-| 
G|53-33-33-3-32320|03-33-33-3-32320|35-55-55-5-54540|00-00--0-0-0045-| 
C|00--------------|0---------------|-0-00-00-0-00--0|00-00--0-0-0000-| 
G|33-33-33-3-33--3|33-33-33-3-33--3|35-55-55-5-55--5|55-55--5-5-5555-| 
C|----------------|----------------|------00-0-00--0|----0-----------| 
 
E|8---------------|----------------|--000-----------|00-00-00-0000-0-| 
C|8---------------|----------000000|--000-0--0-00--0|00-00-00-000000-| 
G|8---------------|----------000000|--000-0--0-00540|00-00-00-000045-| 
C|8---------------|----------000000|--000-0--0-00--0|00-00-00-000000-| 
G|8---------------|----------555555|--555-5--5-55--5|55-55-55-555555-| 
C|8---------------|----------------|0---------------|----------------| 
 
Where are the words of the king... 
 
E|0---------------|----------------|00--------------|00-00-00-0-00-00| 
C|0---------------|----------------|00-00000-000---0|00-00-00-0-00000| 
G|----------------|----------000000|00-00000-0004540|00-00-00-0-00455| 
C|9---------------|--------------00|00-00000-0000--0|00-00-00-0-00000| 
G|9---------------|----------------|55-55555-0005--5|55-55-55-5-55555| 
C|9---------------|----------------|00--------------|----------------| 
 
To the light where my spirit... 
 
  Solo 
E|00-00-00-0-0---0|00-00-00-0-00-0-|00-00-00-0-0----|00-0---000-000--| 
C|00-00-00-0-0---0|00-00-00-0-0000-|00-00-00-0-0---0|00-0---000-00000| 
G|00-00-00-0-54540|00-00-00-0-0045-|55-55-55-5-54540|00-0---000-00455| 
C|00-00-00-0-00--0|00-00-00-0-0000-|00-00-00-0-0---0|00-0---000-00000| 
G|55-55-55-5-55--5|55-55-55-5-5555-|55-55-55-5-55--5|55-5--5555-55555| 
C|00-00-00-0------|------00--------|----0-0---------|0-----0---------| 
 
E|-0-0-----------0|00-0-----------0|-0-00-00-0-00---|00-00--0-0-0000-| 
C|00-0-----------0|00-0-----------0|00-00-00-0-00--0|00-00--0-0-0000-| 
G|53-33-33-3-32320|03-33-33-3-32320|35-55-55-5-54540|00-00--0-0-0045-| 
C|00--------------|0---------------|-0-00-00-0-00--0|00-00--0-0-0000-| 
G|33-33-33-3-33--3|33-33-33-3-33--3|35-55-55-5-55--5|55-55--5-5-5555-| 
C|----------------|----------------|------00-0-00--0|----0-----------| 
 
  Keyboard solo 
E|8---------------|----------------|--000-----------|00-00-00-0000-0-| 
C|8---------------|----------000000|--000-0--0-00--0|00-00-00-000000-| 
G|8---------------|----------000000|--000-0--0-00540|00-00-00-000045-| 
C|8---------------|----------000000|--000-0--0-00--0|00-00-00-000000-| 
G|8---------------|----------555555|--555-5--5-55--5|55-55-55-555555-| 
C|8---------------|----------------|0---------------|----------------| 
 
E|0---------------|----------------|00--------------|00-00-00-0-00-00| 
C|0---------------|----------------|00-00000-000---0|00-00-00-0-00000| 
G|----------------|----------000000|00-00000-0004540|00-00-00-0-00455| 
C|9---------------|--------------00|00-00000-0000--0|00-00-00-0-00000| 
G|9---------------|----------------|55-55555-0005--5|55-55-55-5-55555| 
C|9---------------|----------------|00--------------|----------------| 
 
E|0---------------|----------------|0---------------|----------------| 
C|0---------------|----------------|0---------------|----------------| 
G|5---------------|------5-9-109---|5---------------|------5-9-109---| 
C|0---------------|----------------|0---------------|----------------| 
G|5---------------|------5-9-109---|5---------------|------5-9-109---| 
C|----------------|----------------|----------------|----------------| 
 
David's seed talks through... 
 
E|0---------------|----------------|0---------------|---------0------| 
C|0---------------|----------------|0---------------|---------0------| 
G|3---------------|------3-7-9-7---|5---------------|5--------0--5---| 
C|0---------------|----------------|0---------------|0--------0--0---| 
G|3---------------|------3-7-9-7---|5---------------|5--------5--5---| 
C|----------------|----------------|----------------|--------00-00---| 
 
E|0-----000-----00|0---0---00-0---0| 
C|0-----000-----00|0---0---00-0---0| 
G|5-----666--5--66|6-5-5---55-54540| 
C|0-----000--0--00|0-0-0---00-00--0| 
G|5-----666--5--66|6-5-5---55-55--5| 
E|----------------|----------------| 
 
E|0-----000-----00|0-000---00-0---0|------000-0---00|0-0-0---00-0---0| 
C|0-----000-----00|0-000---00-0---0|------000-0---00|0-0-0---00-0---0| 
G|5-----666--5--66|6-555---55-54540|8-----666-5---66|6-5-5---55-54540| x9 
C|0-----000--0--00|0-000---00-00--0|------000-0---00|0-0-0---00-00--0| 
G|5-----666--5--66|6-555---55-55--5|8-----666-5---66|6-5-5---55-55--5| 
E|----------------|----------------|----------------|----------------| 
 
End. 
	  

there isn't a video lesson for this song

request
Search
auto scroll beats size up size down change color hide chords drawings
tab show chords e-chords YouTube Clip e-chords hide all tabs e-chords go to top tab